Guitar Tabs, Chords and Lyrics
Server problems seems to be fixed. Chordie has been experiencing problems with songs disappearing. These issues now seems to be fixed, but still verifying the fix. If you find anything strange, please email admin@chordie.com.


Coretan Dinding  Iwan Fals

Song title : Coretan Dinding
Artist : Iwan Fals
Fig1
 
 e|---------------------------------------------------------------------------|
 B|---------------------------------------------------------------------------|
 G|---------------------------------------------------------------------------|
 D|--8---8--8--8---8---8--8-----8---8--8--8---8---8--8------------------------|
 A|--8---4--6--8---8---4--6-----8---4--6--8---8---4--6------------------------|
 E|--6-------------6------------6-------------6-------------------------------|

Fig2
 
 e|---------------------------------------------------------------------------|
 B|---------------------------------------------------------------------------|
 G|---------------------------------------------------------------------------|
 D|--8---8--8--8---8---8-----------8------------------------------------------|
 A|--6---4--4--6---6---4---9-8-----8------------------------------------------|
 E|----------------------------9---6------------------------------------------|

Fig3
 
 e|---------------------------------------------------------------------------|
 B|---------------------------------------------------------------------------|
 G|--6-6-6-6-6-6-6--3-3-3-3-3-3-3---------------------------------------------|
 D|--6-6-6-6-6-6-6--5-5-5-5-5-5-5--8---8--8-----------------------------------|
 A|--4-4-4-4-4-4-4--6-6-6-6-6-6-6--8---4--6-----------------------------------|
 E|--------------------------------6------------------------------------------|

CHORD
==============================================================================
(Fig1)
[A#m](Fig2)
[D#m]  
[A#m]Coretan di dinding membuat resah
Resah hati pencoret mungkin ingin tampil[D#m]
( Tab from: http://www.guitartabs.cc/tabs/i/iwan_fals/coretan_dinding_tab.html )
[A#m]Tepi lebih resah pembaca coretannya
Sebab coretan di dinding adalah [D#m]pemberontakan
Kucing hitam yang terpojok di tiap tem[A#m]pat sampah
(Fig3)
Dit[C#]iap[D#] ko[A#m]ta . . . . . . . .
Cakar[C#]nya siap dengan ku[D#]ku-kuku ta[A#m]jam
Mata[C#]nya menyala menga[D#]wasi gerak musuh[A#m]nya
Musuh[C#]nya adalah penin[D#]das
Yang men[C#]ganggap remeh core[D#]tan dinding ko[A#m]ta
[A#m]Coretan di dinding membuat resah
Resah hati pencoret mungkin ingin tampil[D#m]
[A#m]Tepi lebih resah pembaca coretannya
Sebab coretan di dinding adalah [D#m]pemberontakan
Kucing hitam yang terpojok di tiap tem[A#m]pat sampah
Dit[C#]iap[D#] ko[A#m]ta . . . . . . . .
Cakar[C#]nya siap dengan ku[D#]ku-kuku ta[A#m]jam
Mata[C#]nya menyala menga[D#]wasi gerak musuh[A#m]nya
Musuh[C#]nya adalah penin[D#]das
Yang men[C#]ganggap remeh core[D#]tan dinding ko[A#m]ta
[A#m]Coretan dinding terpojok di tempat sampah
[D#m]Kucing hitam dan penindas sama-sama resah
[A#m]Coretan dinding terpojok di tempat sampah
[D#m]Kucing hitam dan penindas sama-sama resah
[A#m] 

Important: The song above is NOT stored on the Chordie server. The original song is hosted at www.guitartabs.cc. Chordie works as a search engine and provides on-the-fly formatting. Chordie does not index songs against artists'/composers' will. To remove this song please click here.

Text color:
Chord color:
Chord grids: 
Font size:    
Page size: 

A#m C# D# D#m
Rate #1 of 3 versions

Login - add to songbook

SHARE PAGE  




You need to log in to post comments