Guitar Tabs, Chords and Lyrics
Major upgrade!! After one year development the new version of Chordie is now online! Please give feedback.


Good People  Jack Johnson

Jack Johnson - Good People
Tabbed by Quoc-Huy
Intro (B E C#m F# x 2)
 
 e----------------------------------------------------|
 B----------------------------------9--9s10--9--7--7--|
 G--------9-9b10-r9p7--7------------------------7--7--|
 D--------------------99-----------------------------|
 A----------------------------------------------------|
 E--7--7--------------------99-----------------------|
 e-----------------------------------------------------|
 B----------------------------------7--7-----7---------|
 G--------9-9b10-r9p7-----7----------------9---9--7----|
 D-------------------9-------------------------------9-|
 A-----------------------------------------------------|
 E--7--7--------------------9--9-----------------------|

Verse B E C#m F#
 
 e--------------0-------4-------2--|
 B------4-------0-------5-------2--|
 G------4-------1-------6-------3--|
 D------4-------2-------6-------4--|
 A--2-2---------2---4-4---------4--|
 E----------0-0-------------2-2----|

[B] You win[E] it's your sho[C#m]w now, So w[F#]hat's it going to be?
[B] cause people[E] will tune in[C#m], How many train wrecks [F#]do we need to see?
[B] Before[E] we lose to[C#m]uch, And [F#]we thought this was low
[B] Well it's [E]bad, getting wo[C#m]rse....
[F#]Where'd all the good people go[B]? [E] [C#m]
I've been ch[F#]anging channels and I don't se[B]e them on the t[E]v shows [C#m]
[F#]Where'd all the good people go[B]?[E] [C#m]
We've got he[F#]aps and heaps of w[B]hat we sow [E] [C#m] [F#]
They got [B]this and that with a ra[E]ttle a tat
Test[C#m]ing, one, two, man[F#] whatcha gonna do
Bad [B]news misused, got [E]too much to lose
[C#m]Give me some truth now, w[F#]ho's side are we on
What[B]ever you say[E], Turn on the bo[C#m]ob tube, I'm in the m[F#]ood to obey
So l[B]ead me astra[E]y, And by the[C#m] way now...
[F#]Where'd all the good people go[B]? [E] [C#m]
I've been ch[F#]anging channels and I don't se[B]e them on the t[E]v shows [C#m]
[F#]Where'd all the good people go[B]?[E] [C#m]
We've got he[F#]aps and heaps of w[B]hat we sow [E] [C#m] [F#]
( Tab from: http://www.guitartabs.cc/tabs/j/jack_johnson/good_people_tab_ver_2.html )
Bridge (rake)
 
 e----------------------------------7-----------------|
 B----------------------------------7----10--7--------|
 G--------9-9b10-r9p7--7-------------------------9----|
 D--------------------99-----------------------------|
 A----------------------------------------------------|
 E--7--7--------------------99-----------------------|
 e------------------------------------------------------------|
 B------------------------------------------------------------|
 G--------9-9b10-r9p7-----7----------11-1011-1011-10--9----|
 D-------------------9----------------------------------------|
 A------------------------------------------------------------|
 E--7--7-------------------9--9-------------------------------|

Bridge chords
[E] [B] [C] [C#] [F#] [F]  
 
 e---0----7----2----3----4----2----1|
 B---0----9----4----5----6----2----1|
 G---2----9----4----5----6----3----2|
 D---2-or-9----4----5----6----4----3|
 A---1----7----2----3----4----4----3|
 E---0------------------------2----1|

[E] Sitting around feeling far a[B]way,
[C] [C#] So far away but I can feel the deb[F#]ris, can you fe[F]el it?
[E] You interrupt me from a fr[B]iendly conversation
[C] [C#] To tell me how great it's all going to [F#]be
[F] [E] You might no-t[B]ice some hesitation
[C] [C#] It's important to you, it's not important to [F#]me
[F] [E] But way down by the e[B]dge of yo--ur reason
[C] [C#] It's beginning to show, and a[E]ll I really want to know is...
[F#]Where'd all the good people go[B]? [E] [C#m]
I've been ch[F#]anging channels and I don't se[B]e them on the t[E]v shows [C#m]
[F#]Where'd all the good people go[B]?[E] [C#m]
We've got he[F#]aps and heaps of w[B]hat we sow [E] [C#m] ([F#]Where'd all the good people go?)
They got [B]this and that with a ra[E]ttle a tat
Test[C#m]ing, one, two, man[F#] whatcha gonna do
Bad [B]news misused, g[E]ive me some truth
You got [C#m]too much to lose, Whose si[F#]de are we on
Where'd all the good people go?
tod[B]ay anyway, Okay what[E]ever you say
[C#m]Wrong and resolute but in the m[F#]ood to obey
St[B]ation to sta[E]tion, desensi[C#m]tizing the na[F#]tion
Where'd all the good people go?
[B]Going, going, gone

Important: The song above is NOT stored on the Chordie server. The original song is hosted at www.guitartabs.cc. Chordie works as a search engine and provides on-the-fly formatting. Chordie does not index songs against artists'/composers' will. To remove this song please click here.

Text color:
Chord color:
Chord grids: 
Font size:    
Page size: 

B C C# C#m E F F#
Rate #1 of 13 versions

Jango Player

Login - add to songbook

SHARE PAGE  




You need to log in to post comments