Guitar Tabs, Chords and Lyrics
Major upgrade!! After one year development the new version of Chordie is now online! Please give feedback.


All Day and All Night   Jakob Dylan

 
 -3-3----------------|
 -3-3----------------|
 -0-0----0-0--0/3/0--|
 -0-2-0/3------------|
 -2-3----------------|
 -3------------------|

 


 


 [2]  

 
 -3------------------|
 -3------------------|
 -0--3-0-0-0/3/0-----|
 -2-----3------------|
 -3------------------|
 --------------------|

 


 


 [3]  

 
 -0------------|
 -1-1-0--------|
 -0----0-0/3/0-|
 -2------------|
 -3------------|
 --------------|

 


 


 4 (X2)Play this riff twice and end on barring the the 3rd fret, last 2 notes


 

 
 -1/3-3--1/3-3--1/3-3---------------|
 -1/3-3--1/3-3--1/3-3-3-0---3-0-----|
 ------------------------3-0---3-0--|
 -----------------------------------|
 -----------------------------------|
 -----------------------------------|

 


 


 Chorus


 

 
 -2-7---2--------------|
 -1-8-1-1----0-3-0-----|
 -2-9-0-2-2/3-----2-0--|
 ---9-2----------------|
 ---7-3----------------|
 ----------------------|


Important: The song above is NOT stored on the Chordie server. The original song is hosted at www.guitartabs.cc. Chordie works as a search engine and provides on-the-fly formatting. Chordie does not index songs against artists'/composers' will. To remove this song please click here.

This song is displayed as text-only. Transposing and tuning is only available for chordpro-songs.
Rate #2 of 4 versions

Login - add to songbook

SHARE PAGE  



You need to log in to post comments