Guitar Tabs, Chords and Lyrics
Server problems seems to be fixed. Chordie has been experiencing problems with songs disappearing. These issues now seems to be fixed, but still verifying the fix. If you find anything strange, please email admin@chordie.com.


Like Everyone She Knows  James Taylor

Like everyone she knows - James Taylor (CD: New Moon Shine)
Capo: II
Guitar solo intro: Scroll down
Like [Bm7]every[C#7sus4]one she [F#m7]knows
She's [A/D]holding out for [E]true love
[A/D]Waiting on an a[E]nswer
[A/D]Ready for a [E]change[E/F#]
And e[Bm7]veryw[C#7sus4]here she[F#m7] goes
She's just a [A/D]little bit on the [E]lookout
A [A/D]day might mean to[E]morrow
[A/D]Questions still re[G/E]main[G/A]
[Dmaj7]It's not that she's so sad
She [C#m7]always was a [D#dim]happy soul
But [C#m7]lately she gets to [D#dim]wonder to herself
[E]What's the [A/F#]good of going [Bm7]on anymore
I [Bm7]see her [C#7sus4]in her [F#m7]room
[A/D]Sitting at the [E]window
[A/D]Wondering if she's [E]pretty
[A/D]Feeling just a little [E]small t[E/F#]onight
She [Bm7]thinks of [C#7sus4]going [F#m7]home
[A/D]Giving up on the [E]city
[A/D]Maybe moving back down to [E]mobile
It's [A/D]not that far to [G/E]fall[G/A]
I [Dmaj7]know she won't see me
But [C#m7]I might just s[D#dim]ay anyhow
[C#m7]If I could be right [D#dim]there right now
As [E]I mys[F#m7]elf was [Bm7]told[C#m7]
[Dmaj7]Hold tight to your heart's des[D/E]ire
Never ever let it [A]go
[D/E]Let nobody fool you into [A]giving it up too soon
[Dmaj7]Tend your own [D/E]fire
Lay low and be s[A]trong
[Bm7]Wait awhile Wait it out
[D/E]Wait it on out Wait it out
It'll come a[A]long
Soprano sax solo:
|(2/4) Bm7 C#7sus4 |(4/4) F#m7 |
|A/D E |A/D E |
|A/D E E/F# |
|Bm7 C#7sus4 F#m7 |
|A/D E |A/D E |
|A/D G/E G/A |
I [Dmaj7]know she won't see me
But [C#m7]I might just s[D#dim]ay anyhow
[C#m7]If I could be right [D#dim]there right now
As [E]I mys[F#m7]elf was [Bm7]told[C#m7]
[Dmaj7]Hold tight to your heart's des[D/E]ire
Never ever let it [A]go
[D/E]Let nobody fool you into [A]giving it up too soon
[Dmaj7]Tend your own [D/E]fire
Lay low and be s[A]trong
[Bm7]Wait awhile Wait it out
[D]Wait it on out Wait it out
It'll come a[A]long
[Bm7]Wait awhile Wait it out[A]
Coda:
|(2/4) Bm7 C#7sus4 |(4/4) F#m7 |
Transcribed by Gerard Koot (Amsterdam, The Netherlands) - dec 2009
Email: gerardkoot@hotmail.com
===================================================================
Guitar solo intro: Like Everyone She Knows - James Taylor
Tabbed by: Gerard Koot (december 2009)
Capo II
| | | | | | | | | | | | | | | |
 
 e|-----------------|-------0----------|----------------0-|------------0h2-0-|
 B|-----------------|---2h3-----0---2--|-----2-0----------|---0---------3----|
 G|------------2----|---2-------1---2--|-----------1------|-----1-----2------|
 D|----------2------|---2h4-----2---2--|---2---------2----|---------0--------|
 A|--------0--------|---------0--------|-0----------------|------------------|
 E|-----------------|------------------|---------2--------|-2----------------|

| | | | | | | | | | | | | |
 
 e|-----------------|-----0-----0------|----------|-------0----------|
 B|--2---0----------|------------------|----------|---2h3-----0---2--|
 G|----2-------1-2--|---2---4-----6----|----------|---2-------1---2--|
 D|----------2------|------------------|----------|-2-2h4-----2---2--|
 A|2----------------|-------------0----|--------0-|---------0--------|
 E|--------0--------|-2-----4----------|----------|------------------|

| | | | | | | | | | | | | | | |
 
 e|---------------0-|------------0h2-0-|------------------|-------0-5--------|
 B|----2-0----------|---0---------3----|---2---0----------|---0h2---2--------|
 G|----------1------|-----1-----2------|-----2-------1-2--|---------2--------|
 D|--2---------2----|---------0--------|-----------2------|------------------|
 A|0----------------|------------------|-2----------------|-0-------0--------|
 E|--------2--------|-2----------------|---------0--------|------------------|

| | | | | | | | | | | | | | | |
 
 e|----5---4--------|0h2-0-------------|---0---0-------0--|------------------|
 B|----2---5-5------|-3---0-0---2---2--|------------------|---------2p0-0-2--|
 G|--2-----4--------|-----------2---2--|---4---2-------4--|---------2--2-----|
 D|--------------2--|------------------|------------------|---------2--------|
 A|------4-----0----|---------0--------|------------------|---------0--------|
 E|2----------------|------------------|---4------2-------|-4----------------|

| | | | | | | | | | | | | | | |
 
 e|-----------------|-----5---4--------|0h2-0-------------|---0---0----------|
 B|3-2p0---0--------|-----2---5-5------|-3---0--0--2---2--|---------------0--|
 G|------2---2-1----|---------4-----2--|-----------2---2--|---4---2----------|
 D|0-------------2--|---2---------0----|------------------|------------------|
 A|-----------------|-------4----------|---------0--------|------------------|
 E|----------0------|-2----------------|------------------|---4-----2--------|

| | | | | | | | | | | | | | |
 
 e|-----------------|--------------|-------0----------|----------------0-|
 B|-----------------|--------------|---2h3-----0---2--|-----2-0----------|
 G|--2-1------------|-------2------|---2-------1---2--|-----------1------|
 D|------4-2-0------|-----2--------|---2h4-----2---2--|---2---------2----|
 A|------------4-2--|-0------------|---------0--------|-0----------------|
 E|0----------------|--------------|------------------|---------2--------|

| | | | | | | | | | | |
 
 e|-----------0h2-0-|------------------|------------------|
 B|--0---------3----|---2---0----------|------------------|
 G|----1-----2------|-----2-------1-2--|------------------|
 D|--------0--------|-----------2------|------------------|
 A|-----------------|-2----------------|-0----------------|
 E|2----------------|---------0--------|------------------|


Important: The song above is NOT stored on the Chordie server. The original song is hosted at www.guitartabs.cc. Chordie works as a search engine and provides on-the-fly formatting. Chordie does not index songs against artists'/composers' will. To remove this song please click here.

Text color:
Chord color:
Chord grids: 
Font size:    
Page size: 

A A/D A/F# Bm7 C#7sus4 C#m7 D D#dim D/E Dmaj7 E E/F# F#m7 G/E
Rate #0 of 2 versions

Login - add to songbook

SHARE PAGE  



You need to log in to post comments