Guitar Tabs, Chords and Lyrics
Server problems seems to be fixed. Chordie has been experiencing problems with songs disappearing. These issues now seems to be fixed, but still verifying the fix. If you find anything strange, please email admin@chordie.com.


Lo and Behold  James Taylor

 
 ---------------------------------------------------------------

JAMES TAYLOR - LO AND BEHOLD From SWEET BABY JAMES album.
Released 1970.
 
 ---------------------------------------------------------------

Tabbed by:PJVillanueva
Lonely by day, empty and cold,
Only to say lo and behold.
Deep in the night, down in my dreams,
Glorious sight this soul has seen.
There's a well on the hill, you just can't kill for Jesus,
There's a well on the hill, let it be.
Don't build no heathen temples where the Lord has done laid his hand, now,
There's a well on the hill, let it be
Everyone's talking 'bout the gospel story,
Some shall sink and some shall rise.
Everyone's talking 'bout the train to glory.
Long, long time till it gets here to you, baby.
There's a well on the hill, you just can't kill for Jesus,
There's a well on the hill, let it be.
Don't build no heathen temples where the Lord has done laid his hand, now,
There's a well on the hill, let it be
 
 e|-------- -------- -------- --------|-------- -------- -------- --------|
 B|-----------------------------------|-----------------------------------|
 G|-----------------------------------|-----------------------------------|
 D|-----------------------------------|-----------------------------------|
 A|-----------------------------------|-----------------------------------|
 E|-----------------------------------|---------------------------------3-|

[Cadd9] [Cadd9] 
[G] [F] [G7] [C] [D7sus4] [D7sus4] [G]  
 
 e|5/7-5--- 3---3--- -------- --3-----|3---3--- -------- -------- --------|
 B|---------6---3H5--------5----------|3H5-3----5---3---------------------|
 G|5/7-5--------5------5--------------|5---5----5---4---------------------|
 D|-----------------------------------|---------5---5-----------------5---|
 A|-------------3--------3----3---3-5-|---------------------------5-7-----|
 E|-----------------------------------|-------------3------3-5/7--------3-|

[+]  
 
 e|-------- -------- -------- --------|-------- -------- -------- --------|
 B|12-----------1---------------------|1---1----1---0---------------------|
 G|12-----------0---------------------|0H2-0----0---0---------------------|
 D|12-----------2---------------------|---------0H2-0---------------------|
 A|-------------3---------------------|-----------------------------------|
 E|-----------------------------------|-----------------------------------|

(Use barred index finger for the slide)
 
 e|5/7-5--- 3---3--- -------- 3-------|3---3--- -------- -------- --------|
 B|---------6---3H5-------------------|3H5-3--/-5---3---------------------|
 G|5/7-5--------5------5------------5-|5---5--/-5---4---------------------|
 D|-----------------------------------|-------------5-----------------5\3-|
 A|-------------3--------3------------|5--------------------------5-7-----|
 E|-----------------------------------|-------------3------3-5/7----------|
 e|-------- 1---0--- -------- --------|-------- -------- -------- --------|
 B|0--------0---1---------------------|3\1-0--------0---------------------|
 G|0--------0---0---------------------|4\2-0-2--0---0---------------------|
 D|0----------------------------------|------2--0---------------------0---|
 A|-----------------------------------|----------------------------0H2----|
 E|-----------------------------------|---------------------------3-------|
 e|5/7-5--- 3---3--- -------- 3-------|3---3--- -------- -------- --------|
 B|---------6---5--------3H5----------|3H5-3----5---3---------------------|
 G|5/7-5--------5------5--------5-----|5---5----5---4---------------------|
 D|-----------------------------------|-------------5-----------------5\3-|
 A|-------------3-----------------3---|5--------5-----------------5-7-----|
 E|-----------------------------------|-------------3--------5-7----------|

Lonely by day, empty and cold
 
 e|-------- -------- -------- --------|-------- -------- -------- --------|
 B|0------------1---------------------|1---1----1---0-----------------1---|
 G|0------------0---------------------|0H2-0----0---0-----------------2---|
 D|0------------2---------------------|---------0H2-0---------------------|
 A|-------------3---------------------|-----------------------------------|
 E|3----------------------------------|-----------------------------------|
 e|5/7-5--- 3---3--- -------- 3-------|3---3--- -------- -------- --------|
 B|---------6---5--------3H5----------|3H5-3----5---3---------------------|
 G|5/7-5--------5------5--------5-----|5---5----5---4---------------------|
 D|-----------------------------------|-------------5-----------------5\3-|
 A|-------------3-----------------3---|5--------5-----------------5-7-----|
 E|-----------------------------------|-------------3----3---5/7----------|

Only to say lo and behold
 
 e|-------- 1---0--- -------- --------|-------- -------- -------- --------|
 B|0----------------------------------|1---1----1---0---------------------|
 G|0--------2---0---------------------|0H2-0----0---0---------------------|
 D|-----------------------------------|---------0H2-0---------------------|
 A|-----------------------------------|-----------------------------------|
 E|-----------------------------------|-----------------------------------|
 e|5/7-5--- 3---3--- -------- 3-------|3---3--- -------- -------- --------|
 B|---------6---5--------3H5----------|3H5-3----5---3---------------------|
 G|5/7-5--------5------5--------5-----|5---5----5---4---------------------|
 D|-----------------------------------|-------------5-----------------5\3-|
 A|-------------3-----------------3---|5--------5-----------------5-7-----|
 E|-----------------------------------|-------------3--------5/7----------|

Deep in the night, down in my dreams
[+]  
 
 e|-------- -------- -------- --------|-------- -------- -------- --------|
 B|12-----------1---------------------|1---1----1---0--------3-3--3---3---|
 G|12-----------0---------------------|0H2-0----0---0--------4-4--4---2---|
 D|12-----------2---------------------|---------0H2-0---------------------|
 A|-------------3---------------------|-----------------------------------|
 E|-----------------------------------|-----------------------------------|
 e|5/7-5--- 3---3--- -------- 3-------|3---3--- -------- -------- --------|
 B|---------6---5--------3H5----------|3H5-3--------3---------------3-----|
 G|5/7-5--------5------5--------5-----|5---5----5---4----------4----------|
 D|-----------------------------------|-------------5------5--------------|
 A|-------------3-----------------3---|5--------5-------------------------|
 E|-----------------------------------|-------------3--------3----3---3---|

Glorious sight this soul has seen
 
 e|-------- -------- -------- --------|-------- -------- -------- --------|
 B|-----------------------------------|-----------------------------------|
 G|-----------------------------------|-----------------------------------|
 D|-----------------------------------|-----------------------------------|
 A|-----------------------------------|-----------------------------------|
 E|-----------------------------------|-----------------------------------|

(.
[Bb] [Am] [D11]  
 
 e|1---0--- ----3--- -------- --------|
 B|3---1--------5---------------------|
 G|3---2--------5---------------------|
 D|-----------------------------------|
 A|1---0--------5---------------------|
 E|-----------------------------------|

There's a
 
 e|-------- -------- -------- --------|
 B|-----------------------------------|
 G|-----------------------------------|
 D|-----------------------------------|
 A|8---7----5-------------------------|
 E|6---5----3-------------------------|

00:43
[Bb] [G] [Bb] [C] [G7] [Bb] [Am]  
 
 e|-------- -------- -------- --------|-------- -------- -------- --------|
 B|---------------------------3\5-----|---------3--------3--------1-------|
 G|---------------------------3\5-----|---------4--------3--------2-------|
 D|3--------5--------5--------3\5-----|---------3-----3-----------2-------|
 A|1--------5--------5--------1\3-----|---------------------------0-------|
 E|---------3--------3---3--------1---|3--------3---3---------------------|

well on the hill You just can't kill for Jesus There's a
 
 e|-------- -------- -------- --------|-------- -------- -------- --------|
 B|-----------------------------------|-----------------------------------|
 G|---------4-------------------------|---------4--------7--------5-------|
 D|5---5----5--------5--------5-------|---------5--------8--------7-------|
 A|5---5----5--------5--------5-------|5---5----5---5----8--------7-------|
 E|3---3----3--------3---3----3---1---|3---3----3---3----6--------5-------|

[G7] [Bb] [Am]  
 
 e|-------- -------- -------- --------|-------- -------- -------- --------|
 B|---------3---------------------3---|---------3--------3--------1-------|
 G|---------4---------------------3--H|4--------4--------3--------2-------|
 D|---------3---------------------3---|---------3-----3-----------2-------|
 A|---------------------------5-------|---------------------------0-------|
 E|3--------3-------------------------|3---3----3-------------------------|

well on the hill Let it be I don't
 
 e|-------- -------- -------- --------|-------- -------- -------- --------|
 B|-----------------------------------|-----------------------------------|
 G|------------------4--------3-3-4---|-----------------------------------|
 D|------------------5--------3-3-5---|------------------8---8----7-------|
 A|5---5----5---5----5---5-5------5---|5---5----5---5----8---8----7-------|
 E|3---3----3---3----3----------------|3---3----3---3----6---6----5-------|

[G7] [C7] [Bb] [Am]  
 
 e|-------- -------- -------- --------|-------- -------- -------- --------|
 B|---------3-----------------3-------|5--------5--------3--------1-------|
 G|---------4-----------------4-------|----3--------3----3--------2-------|
 D|---------3-----------------3-------|------------------3--------2-------|
 A|-------------------------------1---|3-----------------1--------0-------|
 E|3---3--------3----3---3------------|-----------------------------------|

build where has laid his hand now There's a
no heathen the Lord done
temples
 
 e|-------- -------- -------- --------|-------- -------- -------- --------|
 B|-----------------------------------|-----------------------------------|
 G|-------------------------------7--/|9--------9--------7--------5-------|
 D|-------------------------------6--/|8--------8--------8--------7-------|
 A|5---5----5---5----5---5-5--5---8--/10-------10--------8--------7-------|
 E|3---3----3---3----3---3-3--6---6--/|8--------8--------6--------5-------|

[G7] [Fadd9]  
 
 e|-------- -------- -------- --------|-------- ----5--- -------- 5-------|
 B|---------3---------------------3---|-------------6-------------6-------|
 G|---------4---------------------3---|-------------5-------------5-------|
 D|---------3---------------------3---|-----------------------------------|
 A|-------------------------3H5-------|-----------------------------------|
 E|3---3------------------------------|----3----3------------3--------6---|

well on the hill Let it be
 
 e|-------- -------- -------- --------|-------- -------- -------- --------|
 B|-----------------------------------|-----------------------------------|
 G|-----------------------------------|-----------------------------------|
 D|---------------------------5---5---|---------------------------5---3---|
 A|---------5--------5--------5---5H7-|5--------5--------5--------3---1---|
 E|3---3----3---3----3---6B7----------|3--------3---3----3---3------------|

( Tab from: http://www.guitartabs.cc/tabs/j/james_taylor/lo_and_behold_tab.html )
01:08
[G7] [G7sus4] [G7] [G7sus4]  
 
 e|-------- -------- -------- --------|-------- -------- -------- ----3---|
 B|---------3--------3--------3-------|---------3--------3--------3-------|
 G|---------4--------5--------5-------|---------3H4------5--------5-------|
 D|---------3--------3--------3-------|---------3--------3--------3-------|
 A|-----------------------------------|-----------------------------------|
 E|3---3--------3--------3------------|3---3--------3--------3------------|

Everyone's gospel story
talking
'bout my
 
 e|-------- -------- -------- --------|-------- -------- -------- --------|
 B|-----------------------------------|-----------------------------------|
 G|---------4--------5---5--------4---|---------4--------5---5--------4---|
 D|---------3--------5---5--------5---|---------3--------5---5--------5---|
 A|5---5----5---5----7---5------------|5---5----5---5----7---5------------|
 E|3---3----3---3-------------6B7-----|3---3----3---3-------------6B7-----|

[G7] [G7sus4] [G7] [G7sus4]  
 
 e|-------- -------- -------- --------|-------- -------- -------- ----3---|
 B|---------3--------3----------------|---------3--------3--------3-------|
 G|---------4--------5----------------|---------3H4------5--------5-------|
 D|---------3--------3----------------|---------3--------3--------3-------|
 A|-----------------------------------|-----------------------------------|
 E|3---3--------3----3--------3---3---|3---3----3--------3--------3-------|

Some and some shall rise
shall sink
 
 e|-------- -------- -------- --------|-------- -------- -------- --------|
 B|-----------------------------------|-----------------------------------|
 G|---------4--------5---5------------|---------4--------5---5--------4---|
 D|---------3--------5---5--------5---|---------3--------5---5--------5---|
 A|5---5----5---5----7---5--------5---|5---5----5---5----7---5------------|
 E|3---3----3---3-------------6B7-----|3---3----3---3-------------6B7-----|

[G7] [G7sus4] [G7] [G7sus4] [G7]  
 
 e|-------- -------- -------- --------|-------- -------- -------- --------|
 B|---------3--------3--------3-------|---------3--------3--------3-------|
 G|---------4--------5--------4-------|---------3H4------5--------3H4-----|
 D|---------3--------3--------3-------|---------3--------3--------3-------|
 A|-----------------------------------|-----------------------------------|
 E|3---3--------3--------3------------|3---3--------3--------3--------3---|

Everyone's train to Glory
talking
'bout the
 
 e|-------- -------- -------- --------|-------- -------- -------- --------|
 B|-----------------------------------|-----------------------------------|
 G|---------4--------5---5--------4---|---------4--------5---5------------|
 D|---------3--------5---5--------5---|---------3--------5---5--------5---|
 A|5---5----5---5----7---5------------|5---5----5---5----7---5--------5---|
 E|3---3----3---3-------------6B7-----|3---3----3---3-------------6B7-----|

[G7] [G7sus4] [G7] [G7sus4]  
 
 e|-------- -------- -------- --------|-------- -------- -------- 3-------|
 B|---------3--------3----------------|---------3--------3----------------|
 G|---------4--------5----------------|---------3H4------5----------------|
 D|---------3--------3----------------|---------3--------3----------------|
 A|-----------------------------------|-----------------------------------|
 E|3--------3--------3----------------|3---3----3---3----3---3--------3---|

Long, 'till it to you, There's a
long time gets here baby
 
 e|-------- -------- -------- --------|-------- -------- -------- --------|
 B|-----------------------------------|-----------------------------------|
 G|---------4--------5---5------------|---------4-------------------------|
 D|---------3--------5---5--------5---|---------3------------5----5-------|
 A|5---5----5---5----7---5--------5---|5---5----5---5--------5----7-------|
 E|3---3----3---3-------------6B7-----|3---3----3---3----6B7------6-------|

[G7] [Bb] [Am]  
 
 e|-------- -------- -------- --------|-------- -------- -------- --------|
 B|---------3-----3-----------3-------|3--------3--------3--------1-------|
 G|---------4-----4-----------4-------|4--------4--------3--------2-------|
 D|---------3-----3-----------3-------|3--------3--------3--------2-------|
 A|-----------------------------------|------------------1---1----0-------|
 E|3-----------------3---3------------|3---3----3-----3-------------------|

well on the hill You just can't kill for Jesus There's a
 
 e|-------- -------- -------- --------|-------- -------- -------- --------|
 B|-----------------------------------|-----------------------------------|
 G|---------4--------4----------------|------------------7--------5-------|
 D|---------5--------5----------------|------------------8--------7-------|
 A|5---5----5---5----5---5-5--5-------|5---5----5---5----8--------7-------|
 E|3---3----3---3----3---3-3--3---6---|3---3----3---3----6--------5-------|

01:34
[G7] [Bb] [Am]  
 
 e|-------- -------- -------- --------|-------- -------- -------- --------|
 B|---------3-------------------------|---------3--------3--------1-------|
 G|---------4-----------------3-------|---------3H4------3--------2-------|
 D|---------3-----------------3-------|---------3-----3-----------2-------|
 A|----------------------3H5------5---|------------------1---1----0-------|
 E|3-----------------3----------------|3---3------------------------------|

well on the hill Let it be I don't
 
 e|-------- -------- -------- --------|-------- -------- -------- --------|
 B|-----------------------------------|-----------------------------------|
 G|---------4-------------------------|4----------------------------------|
 D|---------5-----------------3---5---|5--------------------------3---3---|
 A|5---5----5---5----5---3H5--3---5---|5---5----5--------5-----5----5-----|
 E|3---3----3---3----3---3------------|3---3----3---3----3---6------------|

[G7] [C7] [Bb] [Am]  
 
 e|-------- -------- -------- --------|-------- -------- -------- --------|
 B|---------3--------3--------3-------|---------5--------3--------1-------|
 G|---------4--------4--------4-------|----3--------3----3--------2-------|
 D|---------3--------3--------3-------|5-----------------3--------2-------|
 A|-----------------------------------|3-----------------1--------0-------|
 E|3---3--------3--------3------------|-----------------------------------|

build where has laid his hand now There's a
no heathen the Lord done
temples
 
 e|-------- -------- -------- --------|-------- -------- -------- --------|
 B|-----------------------------------|--------11-------------------------|
 G|-----------------------------------|---------9--------7--------5-------|
 D|-------------------------------5---|---------8--------8--------7-------|
 A|5--------5--------5------------5---10--10-------10----8--------7-------|
 E|3---3----3---3----3---3----6B7-----|8---8--------8----6--------5-------|

x x x x
[G7] [Fadd9]  
 
 e|-------- -------- -------- --------|5------- -------- -------- --------|
 B|---------3-------------------------|6----------------------------------|
 G|---------4-------------------------|5----------------------------------|
 D|---------3-------------------------|-----------------------------------|
 A|-----------------------------------|-----------------------------------|
 E|3----------------------------------|3----------------------------------|

well on the hill Let it be
 
 e|-------- -------- -------- --------|-------- -------- -------- --------|
 B|-----------------------------------|-----------------------------------|
 G|-----------------------------------|-----------------------------------|
 D|---------------------------5-------|5----------------------------------|
 A|5--------5------------5------------|-----------------------------------|
 E|3--------3---3----6B7--------------|-----------------------------------|

(.
[Bb] [Am] [D7sus4]  
 
 e|-------- ----3--- -------- --------|
 B|3---1--------3---------------------|
 G|3---2--------5---------------------|
 D|3---2------------------------------|
 A|1---0--------5---------------------|
 E|-----------------------------------|
 e|-------- ----3--- -------- --------|
 B|-------------3---------------------|
 G|7---5--------5---------------------|
 D|8---7--------------------------5---|
 A|8---7--------5-------------5-7-----|
 E|6---5-----------------5-7----------|

02:02 Cadd9 Cadd9
[G] [F] [G7] [C] [D7sus4] [D7sus4] [G]  
 
 e|5/7-5--- 3---3--- -------- 3-------|3---3--- -------- -------- --------|
 B|---------6---5-------------5-------|3H5-3--------3---------------------|
 G|5/7-5--------5--------5------------|5---5----5---4---------------------|
 D|-----------------------------------|-------------5-----------------5---|
 A|-------------3---------------------|5--------5-----------------5-7-----|
 E|-----------------------------------|-------------3--------5-7--------3-|
 e|-------- -------- -------- --------|-------- -------- -----+-- --------|
 B|0------------1-------------1-------|1---1----1---0--------12-----------|
 G|0------------0-------------0-------|0H2-0----0---0--------12-----------|
 D|0------------2-------------0H2P0---|---------0H2-0--------12-----------|
 A|-------------3------------------2--|-----------------------------------|
 E|3----------------------------------|-----------------------------------|
 e|5/7-5--- 3---3--- -------- 3-------|3---3--- -------- -------- --------|
 B|---------6---5--------3H5----5P3---|3H5-3--------3---------------------|
 G|5/7-5--------5------5------------5-|5---5----5---4---------------------|
 D|-----------------------------------|-------------5-----------------5\3-|
 A|-------------3----3----------------|5--------5-----------------5-7-----|
 E|-----------------------------------|-------------3--------5/7----------|
 e|-------- -------- -------- --------|-------- -------- -------- --------|
 B|---------0---1---------------------|1---1----1---0---------------------|
 G|---------0---0---------------------|0H2-0----0---0---------------------|
 D|----0--------2---------------------|---------0H2-0---------------------|
 A|-------------3---------------------|-----------------------------------|
 E|3----------------------------------|-----------------------------------|
 e|5/7-5--- 3---3--- -------- 3-------|3---3--- -------- -------- --------|
 B|---------6---5--------3H5----5P3---|3H5-3--------3---------------------|
 G|5/7-5--------5------5------------5-|5---5----5---4---------------------|
 D|-----------------------------------|-------------5-----------------5\3-|
 A|-------------3---------------------|5--------5-----------------5-7-----|
 E|-----------------------------------|-------------3--------5/7----------|
 e|-------- 1---0--- -------- --------|-------- -------- -------- --------|
 B|0--------0---1---------------------|3\1-0----1---0---------------------|
 G|0--------0---0---------------------|4\2-0-2--0---0---------------------|
 D|0----------------------------------|------2--2---0---------------------|
 A|-----------------------------------|-----------------------------------|
 E|-----------------------------------|-----------------------------------|

(.
[Bb] [Bb6] [C] [G7]  
 
 e|5/7-5--- 3---3--- -------- --------|1---3--- 0------- -------- --------|
 B|---------6---5---------------------|3--------1---3---------------------|
 G|5/7-5--------5------5--------------|3--------2---4---------------------|
 D|-----------------------------------|-------------3---------------------|
 A|-------------3--------3----3---3---|1--------0-------------------------|
 E|-----------------------------------|-------------3---------------------|
 e|-------- 1------- -------- --------|-------- -------- -------- --------|
 B|---------3---3---------------------|-----------------------------------|
 G|---------0---0---------------------|-----------------------------------|
 D|----0--------2---------------------|-----------------------------------|
 A|-------------3---------------------|8--------7---5---------------------|
 E|3----------------------------------|6--------5---3---------------------|

B Bend
R Release
/ Slide up
\ Slide down
H Hammer-on
P Pull-off
~ Vibrato
+ Harmonic
x Mute note
. Play note like a dot in standard notation
^ Ties two notes together
(. Pause

Important: The song above is NOT stored on the Chordie server. The original song is hosted at www.guitartabs.cc. Chordie works as a search engine and provides on-the-fly formatting. Chordie does not index songs against artists'/composers' will. To remove this song please click here.

Text color:
Chord color:
Chord grids: 
Font size:    
Page size: 

Am Bb Bb6 C C7 Cadd9 D11 D7sus4 F Fadd9 G G7 G7sus4
Rate #1 of 3 versions

Jango Player

Login - add to songbook

SHARE PAGE  




You need to log in to post comments