Guitar Tabs, Chords and Lyrics
Server problems seems to be fixed. Chordie has been experiencing problems with songs disappearing. These issues now seems to be fixed, but still verifying the fix. If you find anything strange, please email admin@chordie.com.


Telefonbuch Song  Jan Hegenberg

Tuning: Tune down 1 step
You can improvise the intro but also you can play it like this!
[Bb] [Gm] [D#]  
 
 D|-----------------------------|-----------------------------|
 A|------------3----------------|------3----------------------|
 F|-------3-------3----3------3-|---------3----3-----------8--|
 C|-----3----3------3-------5---|----5------5---------8-------|
 G|--1--------------------------|-------------------6----6----|
 D|----------------------3------|----------------6------------|

[F] [Bb] [Gm]  
 
 D|-------------------1---------|-----------------------------|
 A|-----------------------------|------------3----------------|
 F|--------------2-------2----2-|-------3-------3----3------3-|
 C|--8----8----3----3------3----|-----3----3------3-------5---|
 G|----6------------------------|--1--------------------------|
 D|---------1-------------------|----------------------3------|

[D#] [F]  
 
 D|-----------------------------|-------------------------|
 A|------3----------------------|--------------------3----|
 F|---------3----3--------------|----2---------3-----3----|
 C|----5------5---------8-------|--3----3----3----3--3----|
 G|-------------------6----6-1--|---------1---------------|
 D|----------------6---------1--|-------------------------|

You can improvise the Verse too or you play it like this!
[Bb] [Gm] [D#]  
 
 D|-----------------------------|-----------------------------|
 A|------------3----------------|------3----------------------|
 F|-------3-------3----3------3-|---------3----3-----------8--|
 C|-----3----3------3-------5---|----5------5---------8-------|
 G|--1--------------------------|-------------------6----6----|
 D|----------------------3------|----------------6------------|

[F]  
 
 D|-------------------1---------|
 A|-----------------------------|
 F|--------------2-------2----2-|
 C|--8----8----3----3------3----|
 G|----6------------------------|
 D|---------1-------------------|

And now the Chords!
Intro:
Ihr hört erstmal[Bb] die Gitarre
ihr [Gm]hört den Bash
und ihr ihr [D#]hört den Telefonbuchsong
den ich mir jetzt [F]irgendwie aus den Rippen ziehe
Verse 1:
[Bb]Hast du einmal [Gm]langeweile
dann [D#]guck doch im Telefonbuch
nach [F]Autoersatzteilen
[Bb] Hört ihr die [Gm]Seiten flattern?
[D#] Ich bin im [F]Telefonbuch am[(Bb)] blattern!
Refrain:
[Bb]Telefonbuch
[Gm]Telefonbuch
Das [D#]ist das Buch in dem ich [F]Nummern such
[Bb]Telefonbuch
[Gm]Telefonbuch
Das ist das [D#]geile Buch in dem ich [F]Telefonnummern [Bb]such, such, [Gm]such, such
[D#] In dem ich [F]Nummern such
Verse 2:
[Bb] Hey es gibt Ärzte die [Gm]untersuchen den Zahn
doch [D#]da kriege ich [F]immer den Wahn
hier gibt es [Bb]auch viele [Gm]Nummern zu sehen
[D#] aber ich will nicht zum[F] Zahnarzt gehen
Refrain:
[Bb]Telefonbuch
[Gm]Telefonbuch
D# F (Break)
Das ist das geile Buch mit den... *bluab* in dem ich Nummern such, scheise!
[Bb]Telefonbuch
[Gm]Telefonbuch
In [D#]diesem Buch seh ich [F]sogar wie ich heiße
[Bb]Telefonbuch
[Gm]Telefonbuch
Das [D#]ist das Buch in dem ich [F]Nummern such
[Bb]Telefonbuch
[Gm]Telefonbuch
Das [D#]ist das Buch in dem ich [F]Nummern [Bb]such
Have Fun and enjoy it!
Greetz Mikka04

Important: The song above is NOT stored on the Chordie server. The original song is hosted at www.guitartabs.cc. Chordie works as a search engine and provides on-the-fly formatting. Chordie does not index songs against artists'/composers' will. To remove this song please click here.

Text color:
Chord color:
Chord grids: 
Font size:    
Page size: 

Bb D# F Gm
Rate #1 of 5 versions

Login - add to songbook

SHARE PAGE  



You need to log in to post comments