Guitar Tabs, Chords and Lyrics
Server problems seems to be fixed. Chordie has been experiencing problems with songs disappearing. These issues now seems to be fixed, but still verifying the fix. If you find anything strange, please email admin@chordie.com.


El lado oscuro  Jarabe de Palo

Acordes: Cm(x35543)
Bm(x24432)
Dm(x57765)
[Fm(133111)]  
[Gm(355333)]  
C[Am(577555)]m#(x46654)
Em(x79987)
Intro: (0:00-0:20)
 
 |----------------|----------------|----------------|
 |----------------|----------------|----------------|
 |----------------|----------------|----------------|
 |----------------|---5-3----------|----------------|
 |-------5b6---3~-|-3-----5b6---3~-|-------5b6---3~-|
 |-3-6-3----------|----------------|-3-6-3----------|
 -----------------|----------------|----------------|
 -----------------|----------------|----------------|
 -----3-----------|----------------|----------------|
 -4h5---3b5-------|----------------|----------------|
 ----------5b6-3~-|----------------|-------5b6---3~-|
 -----------------|--3--2-0--7-8---|-3-6-3----------|

Verso1: (0:20-0:39)
Principalmente se toca Cm con algunos arreglos que consisten en deslizamientos de Bm a
Bm/Cm; y otros deslizamientos de Cm a Dm, Cm/Dm.
[Cm]Puede que hayas na[Bm/Cm]cido en la [Cm/Dm]cara buena [Cm]del mun[Bm/Cm]do[Cm/Dm] [Cm/Dm]
[Cm]Yo nací en la ca[Bm/Cm]ra mala[Cm/Dm], llevo [Cm]la marca del[Bm/Cm] lado osc[Cm]uro
Coro: (0:39-1:00)
Y no me [Fm]sonrojo si te digo que te [Gm]quiero
[Cm]Y que me dejes o te[Bm/Cm] deje, es[Cm]o ya no me da miedo
Habías s[Fm]ido sin dudarlo la más b[Gm]ella de entre tod[Cm]as
las estrellas que yo [Bm/Cm]vi en el firmamento.
Verso2: (1:00-1:18)
Como ganarse el cielo cuando uno ama con toda el alma
Y es que el cariño que te tengo no se paga con dinero
Como decirte que sin ti muero
Coro: (1:18-1:39)
Y no me sonrojo si te digo que te quiero
Y que me dejes o te deje, eso ya no me da miedo
Habías sido sin dudarlo la más bella de entre todas
las estrellas que yo vi en el firmamento.
Solo1.(1:39-2:18)
 
 |-------------------------------------|-------------------------------------|
 |-------------------------------------|-------------------------------------|
 |-----8-------------------------------|-------------------------------------|
 |8/10---10-8---------8----------------|-/10--/10-8--10-8------8-?8h10-8---8-|
 |------------10?8/10---10b11?---------|------------------8h10-----------10--|
 |----------------------------10b11--8-|-------------------------------------|
 ---------------------------------------------------------------------------|
 -----------------------88-----------------------8-10b11--------------------|
 -----88------1010--------------88------1010--------------8/10-8-8/10-------|
 8h10----8h10------8h10----8h10----8h10------8h10---------8/10-8?8/10-------|
 ---------------------------------------------------------------------10p9p8|
 ---------------------------------------------------------------------------|
 -----------------------------------------------------------------------------|
 -----------------------------------------------------------------------------|
 ---------------------------------------------------------8-8----8-10b12-8----|
 -----------------------------------8-8-----8-10-10--8-10-----10-----------10-|
 ---------------88----8-10-10--8-10------10-----------------------------------|
 8-8-1010--8-10----10---------------------------------------------------------|
 ---------------------------------------------|--11-11-11p8-8-8-8------------|
 ---------------------------------------------|-------------------11-11-11p8-|
 8/10\8?--------------------------------------|------------------------------|
 8/10\8?-8/10--8?-----------------------------|------------------------------|
 -----------------8/10-8--8?10-8h10p8---------|------------------------------|
 -------------------------------------10-(9)-8|------------------------------|
 ---------------------------------------------------------------------------|
 8-8-8----------------------------------------------------------------------|
 ------10-10-10p8-8-8-----8-----8-------------------------------------------|
 ---------------------10----10-----10---8/10--8-----------------------------|
 ------------------------------------------------10\8--6--------------------|
 -----------------------------------------------------------8?-6--8\--------|

Ahora se toca el último verso y coro de la msima manera con la excepción que se suben los tonos
Verso3: (2:18-2:36)
 
 |----------------|
 |----------------|
 |----------------|
 |----------------|
 |-------7b8r7-5~-|
 |-5-8-5----------|

[Dm]Puede que hayas [Cm#/Dm]nacido en la[Dm/Em] cara bu[Dm]ena del mundo[Cm#/Dm] [Dm/Em] [Dm/Em]
[Dm]Yo nací en la ca[Cm#/Dm]ra mala, lle[Dm/Em]vo la ma[Dm]rca del lado o[Cm#/Dm]scuro
Coro:(2:36-:)
[Gm(3]  
Y no me so[Gm]nrojo si te digo que te q[Am]uiero
[Dm]Y que me dejes o[Cm#/Dm] te deje, es[Dm/Em]o ya no [Dm]me da miedo
Habías s[Gm]ido sin dudarlo la más b[Am]ella de entre [Dm]todas
las estrellas que yo[Cm#/Dm] vi en el firmamento.
no me son[Gm]rojo si te digo que te q[Am]uiero, si te dig[Dm]o qu[Cm#/Dm]e te quiero.
Gm* Am* Dm

Important: The song above is NOT stored on the Chordie server. The original song is hosted at www.guitartabs.cc. Chordie works as a search engine and provides on-the-fly formatting. Chordie does not index songs against artists'/composers' will. To remove this song please click here.

Text color:
Chord color:
Chord grids: 
Font size:    
Page size: 

Am Cm Cm/Dm Dm Fm Gm
Rate #1 of 5 versions

Login - add to songbook

SHARE PAGE  



You need to log in to post comments