Guitar Tabs, Chords and Lyrics
Server problems seems to be fixed. Chordie has been experiencing problems with songs disappearing. These issues now seems to be fixed, but still verifying the fix. If you find anything strange, please email admin@chordie.com.


La flaca  Jarabe de Palo

LA FLACA - JARABE DE PALO
by Luca Fornoni (lucaforno@libero.it)
This is not right at 100%, but it sounds quite well!
I'm working for the solos, if anyone wants help me, please email me!
thanks!
So let's see some chords:
[Am]E [577555]x7645x
D# x6534x
D x5423x
D(2nd) x5777x
C x3555x
Ddim x5646x
[F] [133211]  
[F#] [244322]  
[G]F7 [355433]x3324x
E7 x2213x
E7(2nd) x767xx
[Am9]Ebdim [575557]x6757x
E7/9- x7676x
Intro:
clean tone:
[Am] [E] [D]  
 
 e:---------|-----------------------------------|-------------------------------|
 B:---------|-----------------------------------|-----*-*-*-*-*-----------------|
 G:---------|--*-*-----*-*------*-*-*-*----7-6--|--5-(5-5-5-5-5)5---5-4---------|
 D:---------|-(7-7)7-7(7-7)7-7-(6-6-6-6)6--6-5--|--4-(4-4-4-4-4)4---3-2---------|
 A:---------|-(7-7)7-7(7-7)7-7-(7-7-7-7)7--7-6--|--5--5-5-5-5-5-5-0(0)----------|
 E:--0-3-0--|--5-5-5-5-5-5-5-5--0-0-0-0-0-------|------------------------0-3-0--|

[Am] [E]  
 
 e:---------------------------------------|
 B:---------------------------------------|
 G:--*-*-----*-*-----------------7b8r7-5--|
 D:-(7-7)7-7(7-7)7-7--6-6-6-6-6--7b8r7-5--|
 A:-(7-7)7-7(7-7)7-7--7-7-7-7-7-----------|
 E:--5-5-5-5-5-5-5-5--0-0-0-0-0-----------|

Riff A:
[Am] [E]  
 
 e:---------|---------------------------------------|
 B:---------|---------------------------------------|
 G:---------|--*-*-----*-*-----------------7b8r7-5--|
 D:---------|-(7-7)7-7(7-7)7-7--6-6-6-6-6--7b8r7-5--|
 A:---------|-(7-7)7-7(7-7)7-7--7-7-7-7-7-----------|
 E:--0-3-0--|--5-5-5-5-5-5-5-5--0-0-0-0-0-----------|

Explanation:
*
- (7): palm muted
- 7b8: bend string up
- 8r7: release bend
Now let's see the song:
Intro
Verse:
[Am] En la vida co[E]noci mujer igual [D#]a l[D]a flaca Coral negro [C]de La
[Babana]  
tremend[Ddim]?sima mul[Am]ata
Cien libras de piel y [E]hueso 40 kilos [D#]de [D]salsa y en la cara los
soles[F7] E7 F F# G Riff A
que sin palabras hablan. que sin palabras hablan.
[Am] La flaca duerme de [E]dia dice que as? el hamb[D#]re [D]enga?a cuando cae la
[C]noche baja a [Ddim]bailar a la tas[Am]ca
Y bailar y bai[E]lar y tomar y [D#]tom[D]ar una cerveza tras otra [F7]pero e[E7]lla
nunca
engord[F]a, [G] pero ella nunca e[Am]ngorda.[D(2nd)]
Chorus:
[F]Por un beso de la f[G]laca daria lo que[Am] fuera por un beso[D(2nd)] de ella aunque
s?lo uno fuera[F].
Por un beso de la f[G]laca daria lo que [Am]fuera por un beso de [D(2nd)]ella aunque
solo uno fuera. F F# G
Riff A
Aunque solo uno fuera.
Verse:
[Am] [E] [D#] [D] [C] 
Coge mis sabanas blancas como dice la canci?n recordando las caricias
Ddim Lam
que me brindo el primer dia y
Enloquezco de [E]ganas de dormir a su l[D#]adi[D]to porque Dios que esta [F7]flaca
[A]  
[E7]mi me tiene loqu[F]ito.[G]
A mi me tiene loqu[Am]ito.[D(2nd)]
Chorus:
[F] Por un beso de la f[G]laca yo dar?a lo que fue[Am]ra por un beso de[D(2nd)] ella
aunque
s?lo uno fuera[F].
Por un beso de la fl[G]aca yo dar?a lo que fuera[Am] por un beso de e[D(2nd)]lla
aunque
s?lo uno fuera.[F] [G]
Aunque s?lo uno fue[Am]ra.[Ebdim] Aunque [E7(2nd)]s?lo uno fuera.[F] [G]
Aunque s?lo uno fu[Am]era.[Ebdim]
Aunque s[E7(2nd)]?lo uno fuera.[F] [G] [Am] [Ebdim]
Aunque [E7(2nd)]s?lo uno fuera.[F] [G] [Am] [Ebdim]
Aunque [E7(2nd)]s?lo uno fuera.[F] [G] [Am] [Ebdim]
Aunque [E7(2nd)]s?lo uno fuera.[F] [G] [Am] [Ebdim]
Aunque [E7(2nd)]s?lo uno fuera.[F] [G] [Am] [Ebdim]
Aunque [E7(2nd)]s?lo uno fuera.[F] [G] [Am] [Ebdim]
Aunque [E7(2nd)]s?lo uno fuera.
Outro:
Am Am9 Am Ebdim E7/9- (fading)

Important: The song above is NOT stored on the Chordie server. The original song is hosted at www.guitartabs.cc. Chordie works as a search engine and provides on-the-fly formatting. Chordie does not index songs against artists'/composers' will. To remove this song please click here.

Text color:
Chord color:
Chord grids: 
Font size:    
Page size: 

A Am Am9 C D D# Ddim E E7 Ebdim F F# F7 G
Rate #2 of 11 versions

Jango Player

Login - add to songbook

SHARE PAGE  




You need to log in to post comments