Guitar Tabs, Chords and Lyrics
Update 25:10. 13:00. Site is back up running again. Songbooks are recovered. Woring on getting search back up..


Down  Jason Walker

Tabbed by FoShoPancakes
Down by Jason Walker
Capo 1
Standard Tuning
Intro:
 
 e|---------------------------------------------|
 B|-3-3-3-3-3-3--3---3---3---3---2---2---3---3--|
 D|-------------4-4-4-4-2-2-2-2-2-2-2-2-2-2-2---|
 G|------------4---4---4---4---4---4---5---5----|
 A|---------------------------------------------|
 E|---------------------------------------------|

Verse:
 
 e|-----------------------------------------------------------------|
 B|---3---3---3---3---2---2---3---3---3---3---3---3---2---2---3---3-|
 D|--4-4-4-4-2-2-2-2-2-2-2-2-2-2-2-2-4-4-4-4-2-2-2-2-2-2-2-2-2-2-2--|
 G|-4---4---4---4---4---4---5---5---4---4---4---4---4---4---5---5---|
 A|-----------------------------------------------------------------|
 E|-----------------------------------------------------------------|

Chorus:
[D] I shot for the [A]sky
I'm stuck on the [Bm]ground
So why do I try,[G] I know I'm gonna fall dow[D]n
I thought I could fly,[A] so why did I drow[Bm]n?
Never know wh[G]y it's coming down, down, down.
Post-chorus:
 
 e|-------------------------------|
 B|---3---3---3---3---2---2---3-3-|
 D|--4-4-4-4-2-2-2-2-2-2-2-2-2-2--|
 G|-4---4---4---4---4---4---5-----|
 A|-------------------------------|
 E|-------------------------------|

Verse 2:
[Bm] Not ready to let go[D]
Cause then I'd never kno[A]w
That I could be mi[G]ssing
[Bm] I'm missing way too muc[D]h
So when do I give up[A] what I've been wis[G]hing for
Chorus:
[D] I shot for the [A]sky
I'm stuck on the [Bm]ground
So why do I try,[G] I know I'm gonna fall dow[D]n
I thought I could fly,[A] so why did I drow[Bm]n?
Never know wh[G]y it's coming down, down, d[Bm]own.
Bridge:
Oh I'[G]m going down, down,[D] down
Can't fi[A]nd another way arou[Bm]nd
And [G]I don't wanna hear the s[D]ound, of l[A]osing of what I never f[G]ound.
Chorus:
[D] I shot for the s[A]ky
I'm stuck on the [Bm]ground
So why do I try,[G] I know I'm gonna fall dow[D]n
I thought I could fly,[A] so why did I drow[Bm]n?
Never know wh[G]y it's coming down, down, down.
[D] I shot for the [A]sky
I'm stuck on the [Bm]ground
So why do I try,[G] I know Iím gonna fall dow[D]n
I thought I could fly,[A] so why did [Bm]I drown?
Oh i[G]t's coming down, down, down.
Outro:
 
 e|-----------------------|
 B|---3-----3-----2----3--|
 D|--4-----2-----2-----2--|
 G|-4-----4-----4------5--|
 A|-----------------------|
 E|-----------------------|


Important: The song above is NOT stored on the Chordie server. The original song is hosted at www.guitartabs.cc. Chordie works as a search engine and provides on-the-fly formatting. Chordie does not index songs against artists'/composers' will. To remove this song please click here.

Text color:
Chord color:
Chord grids: 
Font size:    
Page size: 

A Bm D G
Rate #2 of 18 versions

Jango Player

Login - add to songbook

SHARE PAGE  




You need to log in to post comments