Guitar Tabs, Chords and Lyrics
Login is temporarily disabled for some users. Do not panic. Will be back in an hour or two. DO NOT REREGISTER!!


Waiting Like A Dog  Jasper Erkens

Waiting like a dog - Jasper Erkens
Tabbed by: Werner Coomans (werner_coomans@hotmail.com)
Tuning: Standard
I?ve tabbed out the strumming of some part, and included the chords for the more
straightforward parts.
Em: 779987
C: 332010
D: 554030
Am: 002210
Em*: 022000
Intro:
 
 E|--7-7--7-7-7-7-7-7-0-0-0-0-0-0-0-0-0-0-0-0-0-0-0-0-0-|
 B|--8-8--8-8-8-8-8-8-0-0-3-3-3-3-3-1-0-1-1-1-0-1-0-1-0-|
 G|--9-9--9-9-9-9-9-9-0-0-0-0-0-0-0-0-0-0-0-0-0-0-0-0-0-|
 D|--9-9--9-9-9-9-9-9-0-0-2-2-2-2-2-2-2-2-2-2-2-2-2-2-2-|
 A|--7----------------0-0-3-3-3-3-3-3-3-3-3-3-3-3-3-3-3-|
 E|--7----------------0-0-------------------------------|

Verse 1:
 
 E|-0-x-x-0-x-0-0-x-x-0-x-0-0-x-x-0-x-0-0-x-x-0-x-0-0--|
 B|-3-----3---3-3-----3---3-3-----3---3-3-----3---3-3--|
 G|-0-----0---0-0-----0---0-0-----0---0-0-----0---0-0--|
 D|-2-----2---2-2-----2---2-2-----2---2-2-----2---2-2--|
 A|-2-----------2-----------2-----------2-----------3--|
 E|-0-x-x---x---0-x-x---x---0-x-x---x---0-x-x---x---0--|
 E|-0-x-x-0-x-0-0-x-x-0-x-0-0-x-x-0-x-0-0-x-0-0-x------|
 B|-3-----3---3-3-----3---3-3-----3---3-3---5-5--------|
 G|-0-----0---0-0-----0---0-0-----0---0-0---0-0--------|
 D|-2-----2---2-2-----2---2-2-----2---2-2---4-4--------|
 A|-3-----------3-----------3-----------3-----5--------|
 E|-0-x-x---x---0-x-x---x---0-x-x---x---0-x---0-x------|

Verse 2:
 
 E|-0?-x?-0--0--x?-0--0--x--0-0-0-0-0-0--|
 B|-3-----3--3-----3--3-----3-3-3-3-3-3--|
 G|-0-----0?-0-----0--0-----0-0-0-0-0-0--| x 2
 D|-2-----2?-2-----2--2-----2-0-2-0-2-0--|
 A|-2-------------------------2-2-2-2-2--|
 E|-0?-x--------x--------x----0-0-0-0-0--|
 E|-0?-x?-0--0--x?-0--0--x--0-0-0-0-0-0--|
 B|-3-----3--3-----3--3-----3-3-3-3-3-3--|
 G|-0-----0?-0-----0--0-----0-0-0-0-0-0--|
 D|-2-----2?-2-----2--2-----2-0-2-0-2-0--|
 A|-3-------------------------3-3-3-3-3--|
 E|-0?-x--------x--------x----0-0-0-0-0--|
 E|-0?-x?-0--0--x?-0--0--x--0-0-0--|
 B|-3-----3--3-----3--3-----5-5-5--|
 G|-0-----0?-0-----0--0-----0-0-0--|
 D|-2-----2?-2-----2--2-----4-4-4--|
 A|-3-------------------------5-5--|
 E|-0?-x--------x--------x----0-0--|

Verse 3:
 
 E|--7-7--7-7-7-7-7-7-7-7-7-7-7-7-7-7-7-7--|
 B|--8-8--8-8-8-8-8-8-8-8-8-8-8-8-8-7-7-7--|
 G|--9-9--9-9-9-9-9-9-9-9-9-9-9-9-9-7-7-7--| x 2
 D|--9-9--9-9-9-9-9-9-9-9-9-9-9-9-9-7-7-7--|
 A|--7--------------------------------7----|
 E|--7--------------------------------7----|
 E|--7-7--7-7-7-7-7-7-7-7-7-7-7-7-7-10-10-10---|
 B|--8-8--8-8-8-8-8-8-8-8-8-8-8-8-8-10-10-10---|
 G|--9-9--9-9-9-9-9-9-9-9-9-9-9-9-9-11-11-11---|
 D|--9-9--9-9-9-9-9-9-9-9-9-9-9-9-9-12-12-12---|
 A|--7---------------------------------12-12---|
 E|--7---------------------------------10-10---|

-Fast-
 
 E|--7-7--7-7-7-7-7-7-7-7-7-7-7-7-7-7-7-7-8-7-8-10-8-7-7---|
 B|--8-8--8-8-8-8-8-8-8-8-8-8-8-8-8-7-7-7-7-7-7-7--7-7-7---|
 G|--9-9--9-9-9-9-9-9-9-9-9-9-9-9-9-7-7-7-7-7-7-7--7-7-7---|
 D|--9-9--9-9-9-9-9-9-9-9-9-9-9-9-9-7-7-7-7-7-7-7--7-7-7---|
 A|--7--------------------------------7--------------------|
 E|--7--------------------------------7--------------------|

-Fast-
 
 E|--7-7--7-7-7-7-7-7-7-7-7-7-7-7-7-0-0-0-0-0-0-0-0-0-0-0-0-0-0-0-0-0-|
 B|--8-8--8-8-8-8-8-8-8-8-8-8-8-8-8-0-0-3-3-3-3-3-1-0-1-1-1-0-1-0-1-0-|
 G|--9-9--9-9-9-9-9-9-9-9-9-9-9-9-9-0-0-0-0-0-0-0-0-0-0-0-0-0-0-0-0-0-|
 D|--9-9--9-9-9-9-9-9-9-9-9-9-9-9-9-0-0-2-2-2-2-2-2-2-2-2-2-2-2-2-2-2-|
 A|--7------------------------------0-0-3-3-3-3-3-3-3-3-3-3-3-3-3-3-3-|
 E|--7------------------------------0-0-------------------------------|

Outro:
 
 E|--7-7--7-7-7-7-7-7-7-7--|
 B|--8-8--8-8-8-8-8-7-7-7--|
 G|--9-9--9-9-9-9-9-7-7-7--| x 2
 D|--9-9--9-9-9-9-9-7-7-7--|
 A|--7----------------7----|
 E|--7----------------7----|

harmonics
 
 E|--7-7--7-7-7-7-7-7-7-0-0-0-0-0-0------12----|
 B|--8-8--8-8-8-8-8-8-8-8-8-8-8-8-8------------|
 G|--9-9--9-9-9-9-9-9-9-9-9-9-9-9-9---7--------|
 D|--9-9--9-9-9-9-9-9-9-9-9-9-9-9-9------------|
 A|--7-----------------------------------------|
 E|--7-----------------------------------------|

COMPLETE SONG:
Intro x 2
Verse 1
I've been waiting like a dog now
and I've been waiting to get back on my feet
I've been waiting like a dog now
waiting on the ground to get a treat
Verse 2
I've been waiting for hours
thinking back to times that call my name
I've been waiting like a dog now
despising the one that I became
Intro x 1
Verse 1
I've been waiting like a dog now
weeks will turn into months and months turn into years
every colour is the same now
there's no black no white there's only gray
Verse 2
I've been waiting for hours
still there's nothing changed
I've been waiting like a dog now
gazing at the backdoor once again
[D]  
[D]and I don't want to [C]wait until I [Am]die
and [Em]I know I know I k[C]now I know
I know I [D]know I know I know
[C]it [D]takes [Em]time
don't [C]leave me be[D]hind[C] [D]
and [Em]I've been to places and [C]seen many faces
but [D]nothing that could [C]ease [D]my m[Em]ind
don't [C]leave me be[D]hind[C] [D]
Verse 3
I've been waiting like a dog now
I've been waiting like a dog now
I've been waiting like a dog now
I've been waiting like a dog now
Em*(short) (mute) C (strum up)
and I know I know I know I know
D (strum up)
I know I know I know I know
[C]it [D]takes [Em]time
don't [C]leave me be[D]hind[C] [D]
and [Em]I've been to places and [C]seen many faces
but [D]nothing that could [C]ease [D]my m[Em]ind
don't [C]leave me be[D]hind[C] [D] [Em]
don't [C]leave me be[D]hind
but [C]ease [D]my mind[Em]
don't [C]leave me be[D]hind
C D Em(strong)
but ease my mind
C(strong) D(strong)
don't leave me behind
but [C]ease [D]my mind[Em]
Outro
Video: http://www.youtube.com/watch?v=U-B-U7sSIBQ

Important: The song above is NOT stored on the Chordie server. The original song is hosted at www.guitartabs.cc. Chordie works as a search engine and provides on-the-fly formatting. Chordie does not index songs against artists'/composers' will. To remove this song please click here.

Text color:
Chord color:
Chord grids: 
Font size:    
Page size: 

Am C D Em
Rate #1 of 5 versions

Login - add to songbook

SHARE PAGE  



You need to log in to post comments