Guitar Tabs, Chords and Lyrics
Major upgrade!! After one year development the new version of Chordie is now online! Please give feedback.


Cause We've Ended as Lovers  Jeff Beck

CAUSE WE'VE ENDED AS LOVERS
As recorded by Jeff Beck
(From the 1975 Album BLOW BY BLOW)
Transcribed by an unregistered user
Words and Music by Stevie Wonder
[C5]8 10 10 x 0 8
[Abmaj7]4 x x 5 8 8
[Fm7]x x x 5 4 4
[Ab/G]x x x 8 9 8
[Am7+5]x 0 15 12 13 13
[Cadd9/Bb]x 13 12 12 13 12
[Csus4]x 3 5 5 6 x
[C]x 3 5 5 5 3
[Cm7]8 10 8 8 8 x
Abmaj7(type 2)
4 x 5 5 4 x
Fm7I
1 3 3 1 4 x
[Cm9]8 10 12 8 8 8
[Gmaj7]3 x 4 4 3 x
[D/C]8 x 7 7 7 x
D/CII
x 3 x 2 3 2
[Bb7]6 8 6 7 x x
Bb7I
x 1 3 1 3 1
Abmaj7VI
x x 6 8 8 8
Fm7VIII
x 8 10 8 9 8
C5(type 2)
8 10 10 x 8 8
Cm7(type 2)
8 x 10 8 11 8
Abmaj7VIII
x 11 10 8 8 8
[Fbm7]x x 2 4 3 3
C5X
x x 10 12 13 x
Gtr I (E A D G B E) - 'Untitled'
Gtr II (E A D G B E) - 'Untitled'
Gtr III (E A D G B E) - 'Keyboards'
Intro
H=54
[C5] [Abmaj7] 
[4/4] Gtr III
W +W W
| | |
[/] [/] [/] 
Gtr I
< <
H. +Q +W H. +Q
 
 |-------------------|-------------|--------------------|
 |-13b15=======(13)r=|=(13)--------|-13pb15=======(13)r=|
 |-------------------|-------------|--------------------|
 |-------------------|-------------|--------------------|
 |-------------------|-------------|--------------------|
 |-------------------|-------------|--------------------|

+W [Fm7] H +Q [Ab/G] Q +W
| | | | |
[/] [/] [/] [/] [/] 
<
+W H +Q +E +E +W
 
 |-------------|-------------------------------|---------|
 |-(13)--------|-13b15=====(13)--(13)b16==(13)r|=(13)----|
 |-------------|-------------------------------|---------|
 |-------------|-------------------------------|---------|
 |-------------|-------------------------------|---------|
 |-------------|-------------------------------|---------|

[Am7+5] W [Cadd9/Bb] W W W
| |
[/] [/]  
<
H +H +W W W
 
 |--------------------|-------------|----------|------||
 |-13pb15=====(13)r===|=(13)--------|----------|------||
 |--------------------|-------------|----------|------||
 |--------------------|-------------|----------|------||
 |--------------------|-------------|----------|------||
 |--------------------|-------------|----------|------||

H=58
[Cm7] W +W [Abmaj7] W
| | |
[/] [/] [/] 
~~~~
H. +Q +H +H H. +Q
 
 |-------------------|-----------------|-------------------|
 |-13b15=======(13)r=|=(13)----(13)----|-13b15=======(13)r=|
 |-------------------|-----------------|-------------------|
 |-------------------|-----------------|-------------------|
 |-------------------|-----------------|-------------------|
 |-------------------|-----------------|-------------------|

+W [Fm7] W
| |
[/] [/]  
~~~~
+H +H H +Q +E +E
 
 |-----------------|----------------------------------|
 |-(13)----(13)----|-13b15=====(13)--(13)b16==(13)r===|
 |-----------------|----------------------------------|
 |-----------------|----------------------------------|
 |-----------------|----------------------------------|
 |-----------------|----------------------------------|

Verse
+W [Csus4C]H H +W [Cm7] W
| | | | |
[/] [/] [/] [/] [/] 
~
|3|
+H. Q A H H +H H A A Q q E +Q E S +S
 
 |--------------|-------------|-------------|-----10--8-8-(8)--------------|
 |-(13)---------|---6----5----|-(5)---------|---x--------------------------|
 |--------------|---5---------|-------------|-x------------------7-(7)b9r==|
 |--------------|---5---------|-------------|------------------------------|
 |--------------|-3-3---------|-------------|------------------------------|
 |--------------|-------------|-------------|------------------------------|

+W [Abmaj7]W
| |
[/] [/]  
~
|3|
+Q E E +Q E S S Q q E +Q. E
 
 |----------------------|-6p=4-4-(4)-----|
 |----------------------|--------------4-|
 |-(7)--5-5-(5)---------|----------------|
 |---------------x/-3s6-|----------------|
 |----------------------|----------------|
 |----------------------|----------------|

+W [Fm7]W
| |
[/] [/]  
Q E E +Q E E Q E E +Q E S +S
 
 |------------------|-3--1-1-(1)---------------|
 |------------------|-------------x------------|
 |-/7s=5-5-(5)------|--------------------------|
 |----------------3-|---------------5b7==(5)r==|
 |------------------|--------------------------|
 |------------------|--------------------------|

+W [C5]H [C] H +W
| | | |
[/] [/] [/] [/]  
~
+Q Q Q E E A H H +H. E S S
 
 |----------------|--------------|------------------|
 |----------------|-5s6----/5----|-(5)--------------|
 |----------------|--------------|------------------|
 |-(5)--3--5--6---|--------------|------------------|
 |----------------|--------------|------------5s(8)-|
 |----------------|--------------|------------------|

Verse
[Cm9] W
|
[/]  
Q q E +E +E S +S
 
 |-10p=8--8-(8)-(8)b11--------------|
 |----------------------------------|
 |----------------------------------|
 |---------------------12b14==(12)r=|
 |----------------------------------|
 |----------------------------------|

+W [Abmaj7]W
| |
[/] [/]  
~~~~
+Q E E +Q E S S Q s S E +Q. e
 
 |-------------------------|-6p=4---4-(4)-----|
 |-------------------------|----------------4-|
 |-------------------------|------------------|
 |-(12)--10-10-(10)----3s6-|------------------|
 |-------------------------|------------------|
 |-------------------------|------------------|

+W [Fm7]W
| |
[/] [/]  
~~~
Q +E E +Q. E Q H E S +S
 
 |---------------------|-3p=1----------------|
 |---------------------|---------------------|
 |--5b7r=(5)-5-(5)-----|---------------------|
 |---------------------|-----------5b7==(5)r=|
 |---------------------|---------------------|
 |---------------------|---------------------|

Chorus
+W [C5] H [C]H +W [D/C]W
| | | | |
[/] [/] [/] [/] [/] 
+Q Q Q E E H H +H E S S E E S +E. +H E E
 
 |----------------|------------|------------------|-----------------------|
 |----------------|-^6----5----|-(5)--------------|-----------------------|
 |----------------|-^5----5----|-(5)----------5---|-7pb9r(7)-(7)----7b9---|
 |-(5)--3--5--6---|------------|----------5h7---7-|-----------------------|
 |----------------|------------|------------------|-----------------------|
 |----------------|------------|------------------|-----------------------|

+W [Fm7]W [Bb7]W [Csus4]H [C] H
| | | | |
[/] [/] [/] [/] [/] 
~~~ ~~
H.. S S H.. E H. E E H +E +Q.
 
 |----------------|-------------|-------------|-------------------|
 |----------------|-----------4-|-------------|-------------------|
 |--------------5-|-7-----------|-------------|-5b7=====(5)r(5)---|
 |--7---------7---|-------------|-6-------5s3-|-------------------|
 |----------------|-------------|-------------|-------------------|
 |----------------|-------------|-------------|-------------------|

+W [D/C] W
| |
[/] [/] 
~~~
+H +E S S E S +S +E +S +S +S +E. +Q. E
 
 |-------------------------------|----------------------------------------------|
 |-----------------13-15-(15)b16r|=(15)-(15)b16r(15)b16==(15)r(15)-(15)---15b17-|
 |-(5)----(5)-3s14---------------|----------------------------------------------|
 |-------------------------------|----------------------------------------------|
 |-------------------------------|----------------------------------------------|
 |-------------------------------|----------------------------------------------|

+W [Fm7] W
| |
[/] [/]  
~~~~
H.. S S E E H +Q
 
 |------------------|-----------------------|
 |---------------13-|-15-15-13b15r===(13)---|
 |-14---------14----|-----------------------|
 |------------------|-----------------------|
 |------------------|-----------------------|
 |------------------|-----------------------|

[Bb7] W [Csus4] H [C] H +W
| | | |
[/] [/] [/] [/] 
~~~
H. E E H +E +Q. +H +E E E S S
 
 |----------------|-----------------------|------------------------|
 |----------------|-13b15=====(13)r(13)---|-(13)----(13)-----------|
 |-13-------12s10-|-----------------------|------------------------|
 |----------------|-----------------------|------------------------|
 |----------------|-----------------------|------------------------|
 |----------------|-----------------------|------------------2s(6)-|

Verse
Q [Cm7] E E E +E Q
| | | |
[/] [/] [/] [/]  
Q +S E. E S +S +T S. +S +S
 
 |-10--(10)b11-------------------------------------------|
 |--------------------11pb12r(11)-(11)-------------------|
 |-------------------------------------------------------|
 |-------------------------------------12b13==(12)-(12)r=|
 |-------------------------------------------------------|
 |-------------------------------------------------------|

+W Q [Abmaj7]E E E +E Q
| | | | |
[/] [/] [/] [/] [/] 
~~~~~~~
+Q. E +Q. E A Q E E +Q. E
 
 |--------------------|-4s6p=4-4-(4)--------|
 |--------------------|-------------------4-|
 |--------------------|---------------------|
 |-(12)---10-(10)-----|---------------------|
 |--------------------|---------------------|
 |--------------------|---------------------|

+W Q [Fm7]E E E +E Q
| | | | |
[/] [/] [/] [/] [/] 
 
 |-------3--------|

Q +Q +E +E +S +E. +E E A Q H E S +S
 
 |---------------------------------------|---3p=1-------------------|
 |---------------------------------------|--------------------------|
 |--5b7r(5)b7r(5)b7r(5)b7==(5)r(5)-(5)---|--------------------------|
 |---------------------------------------|-3---------------5-(5)b7r=|
 |---------------------------------------|--------------------------|
 |---------------------------------------|--------------------------|

+W [Csus4]H [C]H
| | |
[/] [/] [/]  
+Q H E E Q +E +E H
 
 |---------------|--------------------|
 |---------------|-6b8===(6)r(6)p5----|
 |---------------|--------------------|
 |-(5)--3----5s6-|--------------------|
 |---------------|--------------------|
 |---------------|--------------------|

Verse
+W [Cm7] W
| |
[/] [/]  
|-3-|
+H S S E Q a a Q q q +Q E S +S
 
 |--------------------|-----10-8-8b10==(8)r-------------|
 |-(5)----------------|---x-----------------------------|
 |--------------------|-x----------------------7-(7)b8r=|
 |--------------------|---------------------------------|
 |--------------------|---------------------------------|
 |--------18s(6)------|---------------------------------|

+W [Abmaj7] W +W
| | |
[/] [/] [/] 
~
|-3-|
+Q E E Q Q a Q Q Q Q. e Q. +E Q +E E
 
 |-----------------|------6-4-4-------|----------------------|
 |-----------------|---------------4--|----------------------|
 |-(7)--5s7s5------|---/6-------------|--5b7r==(5)-5--(5)----|
 |-------------x/--|-3----------------|-------------------x\-|
 |-----------------|------------------|----------------------|
 |-----------------|------------------|----------------------|

[Fm7]W +W [Csus4] H [C]H +W
| | | | |
[/] [/] [/] [/] [/] 
Q Q +E E E S +S +Q Q Q E E H H +H S S E E E
 
 |-3p=1--(1)-------------|----------------|------------|-------------------|
 |-----------------------|----------------|-/6p===5----|-(5)------------5--|
 |-----------------------|----------------|------------|------------5-7----|
 |---------------5-(5)b6r|=(5)--3--5S=6---|------------|--------5h7--------|
 |-----------------------|----------------|------------|-------------------|
 |-----------------------|----------------|------------|-------------------|

Chorus
[D/C]W +W [Fm7]W [Bb7]W
| | | |
[/] [/] [/] [/] 
~~~ ~~
E +E +H E E H. E E E E +H +E +E H. E E
 
 |----------------------|--------------|-----------------------|--------------|
 |----------------------|--------------|-----------------------|--------------|
 |-7b9r(7)-(7)----7b9---|------------5-|-7p5b7==(5)----(5)r(5)-|--------------|
 |----------------------|--7-------7---|-----------------------|-6-------5s3--|
 |----------------------|--------------|-----------------------|--------------|
 |----------------------|--------------|-----------------------|--------------|

[Csus4]H [C] H +W
| | |
[/] [/] [/]  
Q +E. +S +H Q. +E +S +E. E E
 
 |----------------------|------------------------------|
 |----------------------|---------------------------13-|
 |-5b7===(5)r(5)-(5)----|-/7b9r==(7)b9==(7)r(7)-/12----|
 |----------------------|------------------------------|
 |----------------------|------------------------------|
 |----------------------|------------------------------|

[D/C] Q E Q E E E E E E E Q Q
| | | | | | | |
[/] [/] [/] [/] [/] [/] [/] [/] 
~~~
E +S +H E. E H. E E
 
 |------------------------------------|---------------------|
 |-15pb17==(15)r(15)--------15b17-----|-----------------13--|
 |------------------------------------|-14-----------14-----|
 |------------------------------------|---------------------|
 |------------------------------------|---------------------|
 |------------------------------------|---------------------|

[Fm7] W [Bb7] W
| |
[/] [/]  
~~~
H. E +E H. E E
 
 |---------------------|----------------|
 |-15-------15-(15)b16-|----------------|
 |---------------------|-13-------12s10-|
 |---------------------|----------------|
 |---------------------|----------------|
 |---------------------|----------------|

[Csus4] H [C] H +W
| | |
[/] [/] [/] 
 
 |------3-------|

Q +Q +Q +H +H. Q
 
 |-------------------------------|---------------||
 |-13b15r(13)b15r(13)b15r(13)----|-(13)----------||
 |-------------------------------|---------------||
 |-------------------------------|-----------x\--||
 |-------------------------------|-----------x\--||
 |-------------------------------|---------------||

Guitar Solo
[Cm7]W +E E E Q E +Q
| | | |
[/] [/] [/] [/] 
~ ~~
S S E Q +E S S S S E Q Q Q E E
 
 |----------------------------|-------------------|
 |--------------4b4.5-----7s8-|-----------------4-|
 |-----3h5--(5)-------5-------|--5------------5---|
 |-5p3------------------------|-------------------|
 |----------------------------|-------------------|
 |----------------------------|-------------------|

Abmaj7(type 2)
W E E Q +H
| | | |
[/] [/] [/] [/]  
~~~
H. +E +E +H. Q
 
 |----------------------|-----------------|
 |-6b8=======(6)b9==(6)r|=(6)-------------|
 |----------------------|-----------------|
 |----------------------|-----------------|
 |----------------------|-----------------|
 |----------------------|-----------------|

[Fm7] W +W
| |
[/] [/]  
E E +Q +Q. S S H +E E E E
 
 |-------------------------|-------------------|
 |-------------------------|-------------------|
 |-10p8b10==(8)r=(8)---7h8p|==7----(7)---------|
 |-------------------------|-------------------|
 |-------------------------|-------------------|
 |-------------------------|-----------/13s1-1-|

[Gmaj7]W +W
| |
[/] [/]  
Q. A E E +Q E +E E Q E E E E
 
 |---------------------|---------------------|
 |---------------------|---------------------|
 |---------------------|---------------------|
 |------3s5-3-(3)b4----|---------------------|
 |-------------------5-|-(5)-3p1b2------1h3--|
 |-3-------------------|------------3p0------|

[Cm7]W E Q E Q E E
| | | | |
[/] [/] [/] [/] [/] 
Gtr I
~
W +H. E E
 
 |-------------------------|--------------------------|
 |-------------------------|--------------------------|
 |-------------------------|--------------------------|
 |-------------------------|--------------------------|
 |-3-----------------------|-(3)-----------1--------3-|
 |-------------------------|--------------------------|

|
| Gtr II
| ~
| E E E E E +E Q +H E E +S +E.
 
 |-------------------------|--------------------------|
 |-------------------------|--------------------------|
 |-------------------------|--------------------------|
 |-------------------------|--------------------------|
 |-6-8-8-8pb9-8pb10r(8)----|----------6-8-(8)b9r(8)---|
 |----------------------8--|-(8)----------------------|

Abmaj7(type 2)
W +W
| |
[/] [/]  
~~~~
E E +H. +H. E E
 
 |------------------------|-----------------|
 |------------------------|-----------------|
 |------------------------|--------------3--|
 |-1----------------------|------------5----|
 |-----------3-(3)--------|-(3)-------------|
 |------------------------|-----------------|

|
| S +E. +H E E Q. E Q E E
 
 |------------------------|-----------------|
 |------------------------|-----------------|
 |------------------------|-----------------|
 |------------------------|-----------------|
 |-8pb10r(8)---(8)p===6h8-|-----------------|
 |------------------------|--8-----------8--|

Fm7I
Q E E H +W
| | | |
[/] [/] [/] [/] 
H +S E. +Q W
 
 |----------------------------------------|--------------------|
 |-----------------4tr6---(4tr6)----------|--6tr8--------------|
 |-3tr5-------(3)-------------------------|--------------------|
 |----------------------------------------|--------------------|
 |----------------------------------------|--------------------|
 |----------------------------------------|--------------------|

|
| |-3-|
| E E E E E E E S +S E E E E Q Q Q
 
 |----------------------------------------|--------------------|
 |----------------------------------------|--------------------|
 |----------------------------------------|--------------------|
 |----------------------------------------|--------------------|
 |------6-8p6--8b9---------------8pb9r(8)p|==6----8p6-8-6-8-5--|
 |-8--------------------------------------|--------------------|

[Gmaj7]W +W
| |
[/] [/]  
~
H E Q S S E a Q S S E E E S S
 
 |----------------------|-------------------------------|
 |-6tr7----8b10---------|--3-5p3------([3])-------------|
 |--------------9\--2s4-|---------5s4-------/4----------|
 |--------------9\------|----------------------5s10-----|
 |----------------------|-------------------------------|
 |----------------------|-------------------------------|

|
| W W
 
 |----------------------|-------------------------------|
 |----------------------|-------------------------------|
 |----------------------|-------------------------------|
 |----------------------|-------------------------------|
 |----------------------|-------------------------------|
 |----------------------|-------------------------------|

[Cm7]W +W
| |
[/] [/] 
|--3--|
S S S S S S S S E. +s Q Q E E Q q q
 
 |-8--------------8------11b14==(11)r----|--------------------|
 |---11p8-------8---11p8-----------------|-------------16-18--|
 |--------10b12--------------------------|-------10s17--------|
 |---------------------------------------|--------------------|
 |---------------------------------------|--------------------|
 |---------------------------------------|--------------------|

Abmaj7(type 2)
W +Q Q E E E E
| | | | | |
[/] [/] [/] [/] [/] [/] 
~~~~~~
W +Q +Q E +E +E +E
 
 |---------------|------------------------------------|
 |-18b20=========|=(18)--(18)--18r(18)b20==(18)r(18)--|
 |---------------|------------------------------------|
 |---------------|------------------------------------|
 |---------------|------------------------------------|
 |---------------|------------------------------------|

Fm7I
Q E E E E Q Q E E E E Q
| | | | | | | | | |
[/] [/] [/] [/] [/] [/] [/] [/] [/] [/] 
~~~~~~ ~~~~ ~~~~ ~~~~~
Q. E +Q. S +S +Q. S +S +Q E +E
 
 |--------------------------------------|----------------------------------------|
 |-18b20r===18b20==(18)-----18r(18)b20==|=(18)----18r(18)b20==(18)r==18b20==(18)r|
 |--------------------------------------|----------------------------------------|
 |--------------------------------------|----------------------------------------|
 |--------------------------------------|----------------------------------------|
 |--------------------------------------|----------------------------------------|

[Gmaj7] W +W
| |
[/] [/]  
~~~~
+H. +Q A E Q E E E E E
 
 |-----------------|----18----------------|
 |-(18)------(18)--|----------------------|
 |-----------------|-15-------------------|
 |-----------------|----------------------|
 |-----------------|----------------1-3-1-|
 |-----------------|-------17\--1h3-------|

[Cm7]H +E Q E E Q E E Q.
| | | | | | |
[/] [/] [/] [/] [/] [/] [/]  
H +Q Q Q E E E E E E
 
 |------------------|------------------|
 |------------------|------------------|
 |------------------|------------------|
 |------------------|------------------|
 |-6b8r===(6)-------|-----------3--3---|
 |------------------|-------3-6------6-|

Abmaj7(type 2)
W +H Q E E
| | | |
[/] [/] [/] [/] 
~~~
E E +H +E +S +S +H +E E E E
 
 |-----------------------------|-----------------------|
 |-----------------------------|-----------------------|
 |-----------------------------|---------------[3]-[5]-|
 |-----------------------------|------------/5---------|
 |-6-6b8==(6)----(6)-(6)r(6)b8r|=(6)----(6)------------|
 |-----------------------------|-----------------------|

Fm7I
Q E E Q E E W
| | | | | |
[/] [/] [/] [/] [/] [/] 
~~~
 
 |----3----| |---3---|

Q. +E E +E +E +Q E E Q Q A Q A Q
 
 |---------------------------------|------------------|
 |---------------------------------|------------------|
 |-3b4.5r===(3)-5b7==(5)r(5)-(5)---|-5----------------|
 |---------------------------------|---5s3--3-1h3-1h3-|
 |---------------------------------|------------------|
 |---------------------------------|------------------|

[Gmaj7]W +W
| |
[/] [/]  
~
E E Q E E Q E E Q E Q E
 
 |-----------------|---------------------|
 |-----------------|---------------------|
 |-----------------|---------------------|
 |---/5-4----/7-5--|----/9-7--/10-9--10--|
 |-----------------|--0------------------|
 |-3-------3-------|---------------------|

[Cm7]E E Q E E Q
| | | |
[/] [/] [/] [/] 
S S S S S S S S S S S S S S S S
 
 |-8--------------8--------------8--------------8-|
 |---11p8-------8---11p8-------8---11p8-------8---|
 |--------10b12----------10b12----------10b12-----|
 |------------------------------------------------|
 |------------------------------------------------|
 |------------------------------------------------|

E E Q E E Q
| | | |
[/] [/] [/] [/]  
S S S S S S S S E E E S S
 
 |--------------8-------------------------|
 |-11p8-------8---11p8---14b17-----11-13--|
 |------10b12-----------------------------|
 |----------------------------------------|
 |----------------------------------------|
 |----------------------------------------|

Abmaj7(type 2)
E E Q E E Q
| | | |
[/] [/] [/] [/]  
~~ ~~ ~~ ~~
E S S E S S E S S E S S
 
 |-------------------------------------|
 |-13-11-13-13-11-13-13-11-13-13-11-11-|
 |-------------------------------------|
 |-------------------------------------|
 |-------------------------------------|
 |-------------------------------------|

Fm7I
W H Q E E
| | | | |
[/] [/] [/] [/] [/] 
~~~
S E S E S S S E. +E. S S E. +H +E E
 
 |-11-------11-------11-------------------|----------------------------------|
 |----13b16----13b16----13p11-------------|----------------------------------|
 |----13b15-------------------12--(12)-10p|=8h10b12==(10)-----(10)b13==[10]r=|
 |----------------------------------------|----------------------------------|
 |----------------------------------------|----------------------------------|
 |----------------------------------------|----------------------------------|

H Q E E [Gmaj7]H E E E E
| | | | | | | |
[/] [/] [/] [/] [/] [/] [/] [/] 
~~
+E +E E E Q E E E Q E +E E +S E.
 
 |-------------------------|-----------------------|
 |-------------------------|-----------------------|
 |-([10])r(10)p8h10-8s=7-8-|-----------------------|
 |-------------------------|-7s5s=4-(4)s2-(2)h4----|
 |-------------------------|-----------------------|
 |-------------------------|-----------------------|

+Q E E E E Q [Cm7] H +Q E E
| | | | | | | |
[/] [/] [/] [/] [/] [/] [/] [/] 
~~
+S E. +S E. +E E E E E E E E H
 
 |-----------------------------|----8-11p8-11b15========|
 |-----------------------------|-/8---------------------|
 |-----------------------------|------------------------|
 |-(4)s7--(7)-6----(6)-(6)sx---|------------------------|
 |-----------------------------|------------------------|
 |-----------------------------|------------------------|

Q E E E Q +E
| | | | |
[/] [/] [/] [/] [/] 
+Q +E. +S S S S S S S S S
 
 |-(11)--(11)r==(11)------8-11p8-----8---|
 |-------------------8h11--------11------|
 |---------------------------------------|
 |---------------------------------------|
 |---------------------------------------|
 |---------------------------------------|

Abmaj7(type 2)
H E E Q Q +E E E Q +E
| | | | | | | |
[/] [/] [/] [/] [/] [/] [/] [/] 
~~~ ~~~~~~
E E +H S S E E E +H +E E
 
 |-11p8-(8)------------|-----------------------|
 |---------------8s6---|-6s8-(8)-------(8)-----|
 |-------------------8-|-----------------------|
 |---------------------|-------------------(0)-|
 |---------------------|-----------------------|
 |---------------------|-----------------------|

Fm7I
H Q E E
| | |
[/] [/] [/] 
 
 |--3--| |--3--| |--3--| |-3--| |-3-| |-3-| |-3-| |-3-|

S S S S S S S S S S S S S S S S S S S S S S S S
 
 |-----------------------------------------------------------|
 |-----------------------------------------------------------|
 |-12h13p12-11h12p11-10h11p10-9h10p9-8h9p8-7h8p7-6h7p6-5h6p5-|
 |-----------------------------------------------------------|
 |-----------------------------------------------------------|
 |-----------------------------------------------------------|

E E Q +Q E E
| | | |
[/] [/] [/] [/] 
 
 |-3-| |-3-| |-3-| |-3-| |-3-|

S S S S S S S S S S S S S S S S S S S E
 
 |--------------------------------------------|
 |--------------------------------------------|
 |-4h5p4-3h4p3-2h3p2-1h2p1--0h1p0-------------|
 |--------------------------------5s4-3s1-----|
 |--------------------------------------------|
 |----------------------------------------1s==|

[Gmaj7]W H H
| | |
[/] [/] [/]  
E E E E E Q. +H. E E
 
 |-----------------|-------------------||
 |-----------------|-------------------||
 |-----------------|-------------------||
 |---5-4---/7-5----|-(5)-------x/------||
 |-----------------|-----------x/------||
 |-3-----3---------|--------------/(3)-||

Verse
[Cm7]W +H Q E E
| | | |
[/] [/] [/] [/] 
~~~
|-3--|
Q Q q E. +S E S +S +Q S S S +S +Q E S S
 
 |---10-8-8b11==(8)r-----------|------------------------------|
 |-----------------------------|------------------------------|
 |---------------------7-(7)b8r|=(7)--5---5pb7r(5)-(5)--------|
 |-----------------------------|--------------------------3s6-|
 |-----------------------------|------------------------------|
 |-----------------------------|------------------------------|

[Abmaj7]W +H +Q E E
| | | | |
[/] [/] [/] [/] [/] 
~~~
 
 |-3-| |-------3--------|

Q Q q Q. e E +E +Q +Q +Q Q
 
 |-6-6-5-4-------|-------------------------------|
 |------------4--|-------------------------------|
 |---------------|--5b7==(5)r(5)b7==(5)r(5)------|
 |---------------|-------------------------------|
 |---------------|-------------------------------|
 |---------------|-------------------------------|

[Fm7]H +Q E E W
| | | | |
[/] [/] [/] [/] [/]  
A E E E E +Q E S +S +Q Q Q E E
 
 |-----3-2-1-(1)------------|-----------------|
 |--------------------------|-----------------|
 |--------------------------|-----------------|
 |-2s3--------------5-(5)b6r|=(5)--3--5--6----|
 |--------------------------|-----------------|
 |--------------------------|-----------------|

Chorus
[C5] H [C]H +W [D/C] W +W
| | | | |
[/] [/] [/] [/] [/] 
~
|-3-| |-3-|
Q. S S H +H E E E E E E +H. +Q +H +Q E E
 
 |---------------|--------------------|------------------|-----------------|
 |-/6p==5h6p5----|-(5)----------------|------------------|-----------------|
 |---------------|------------5-7p5-7-|-(7)b9=======(7)--|-(7)r===(7)--5-7-|
 |---------------|--------5-7---------|------------------|-----------------|
 |---------------|--------------------|------------------|-----------------|
 |---------------|--------------------|------------------|-----------------|

[Fm7]W [Bb7]W
| |
[/] [/]  
~~ ~~
|-3-|
H. +E S S S H. E E
 
 |-------------------|-------------|
 |-------------------|-------------|
 |-8-------(8)-8p7p5-|-------------|
 |-------------------|-6-------5s3-|
 |-------------------|-------------|
 |-------------------|-------------|

[Csus4]H [C]H +W
| | |
[/] [/] [/]  
~~~
S +E. +E S S Q. S S Q. S S E E S S E
 
 |----------------------------|---------------------------|
 |----------------------------|---------------------------|
 |-5-(5)b7==(5)r-5h7p5--------|---------5-7p5-----/(16)---|
 |------------------------5h7p|==5----7-------7s6s=(16)---|
 |----------------------------|---------------------------|
 |----------------------------|---------------------------|

[D/C] W +H E E Q
| | | |
[/] [/] [/] [/] 
~~
E E H +E +E +E +E Q Q E E
 
 |---------------------------|---------------------------|
 |-13-15-15----(15)-(15)b17==|=(15)r(15)--------------15-|
 |---------------------------|-----------(14)------14----|
 |---------------------------|---------------------------|
 |---------------------------|---------------------------|
 |---------------------------|---------------------------|

[Fm7] W [Bb7] W
| |
[/] [/]  
 
 |-----3-----|

A Q A Q A Q A Q. E H Q E E
 
 |------------------------------|----------------|
 |-16p15-16p15-16p15-16p15p==13-|----------------|
 |------------------------------|-13-------12s10-|
 |------------------------------|----------------|
 |------------------------------|----------------|
 |------------------------------|----------------|

[Csus4] H [C]H +W
| | |
[/] [/] [/]  
H. +Q +H Q E E
 
 |-------------------|----------------|
 |-13b15r======(13)--|-(13)-----------|
 |-------------------|----------------|
 |-------------------|----------------|
 |-------------------|----------------|
 |-------------------|------------xs8-|

Verse
[Cm9] W +W
| |
[/] [/]  
|-3-|
Q Q Q Q E S +S +Q E +E +Q Q
 
 |-10-8-8b11-----------------|----------------------------|
 |---------------------------|----------------------------|
 |---------------------------|----------------------------|
 |----------------12-(12)b13r|=(12)--10-(10)b12r(10)------|
 |---------------------------|----------------------------|
 |---------------------------|----------------------------|

[Abmaj7]W +W [Fm7]W +W
| | | |
[/] [/] [/] [/] 
~ ~
|-3-| |-3-|
Q Q q Q. e Q Q Q Q Q E E H E S +S +E E Q Q E E
 
 |-6-4-6-4-------|---------------|-3p1-1--------------|-----------------|
 |------------4--|---------------|--------------------|-----------------|
 |---------------|-/7s5-7s5------|--------------------|-----------------|
 |---------------|---------------|------------5-(5)b6r|=(5)-3-3--5--6---|
 |---------------|---------------|--------------------|-----------------|
 |---------------|---------------|--------------------|-----------------|

[C5]H [C]H W
| | |
[/] [/] [/]  
Q. +E H E S S S S S S Q Q
 
 |-----------------|---------------------|
 |-6pb8r==(6)p5----|---------------------|
 |-----------------|---5h7p5-------------|
 |-----------------|-----------5h7p5-----|
 |-----------------|---------------------|
 |-----------------|---------------------|

Outro
[Cm7] W +W
| |
[/] [/] 
<
 
 |-----3------| |------3------|

H +Q +Q +Q +E +E +E +H E S +S
 
 |-20pb22=====(20)r(20)b22r(20)b22r=|=(20)b22==(20)r(20)-(20)---------------|
 |----------------------------------|---------------------------------------|
 |----------------------------------|------------------------------7-(7)b8r=|
 |----------------------------------|---------------------------------------|
 |----------------------------------|---------------------------------------|
 |----------------------------------|---------------------------------------|

[Abmaj7] W +W [Fm7] W
| | |
[/] [/] [/] 
~~~
+E E H +E E W E E E S S E E +Q
 
 |--------------------|-----------|--------------3-(3)--|
 |--------------------|-----------|--------4------------|
 |-(7)-5-5----(5)-7b8-|-----------|----3-5--------------|
 |--------------------|-----------|-/5------------------|
 |--------------------|-----------|---------------------|
 |--------------------|-----------|---------------------|

+W [C5]W +W
| | |
[/] [/] [/] 
~~~~~~~~~~~
+H Q S +S E H H +W
 
 |-(3)--------------------|-----------|--------*|
 |-----------6pb6.5r(6)p4-|-6----5----|-(5)----*|
 |------------------------|-----------|--------*|
 |------------------------|-----------|--------*|
 |------------------------|-----------|--------*|
 |------------------------|-----------|--------*|

Duration Legend
 
 ---------------
 W - whole; H - half; Q - quarter; E - 8th; S - 16th; T - 32nd; X - 64th; a - acciaccatura

+ - note tied to previous; . - note dotted; .. - note double dotted
Uncapitalized letters represent notes that are staccato (1/2 duration)
Irregular groupings are notated above the duration line
Duration letters will always appear directly above the note/fret number it represents the
duration for. Duration letters with no fret number below them represent rests. Multi-
bar rests are notated in the form Wxn, where n is the number of bars to rest for. Low
melody durations appear below the staff
Tablature Legend
 
 ----------------

h - hammer-on
p - pull-off
b - bend
pb - pre-bend
r - bend release (if no number after the r, then release immediately)
/\ - slide into or out of (from/to "nowhere")
s - legato slide
S - shift slide
- natural harmonic
[n] - artificial harmonic
n(n) - tapped harmonic
~ - vibrato
tr - trill
T - tap
TP - trem. picking
PM - palm muting
\n/ - tremolo bar dip; n = amount to dip
\n - tremolo bar down
n/ - tremolo bar up
/n\ - tremolo bar inverted dip
= - hold bend; also acts as connecting device for hammers/pulls
- volume swell (louder/softer)
x - on rhythm slash represents muted slash
o - on rhythm slash represents single note slash
Misc Legend
 
 -----------

| - bar
|| - double bar
||o - repeat start
o|| - repeat end
*| - double bar (ending)
: - bar (freetime)
$ - Segno
& - Coda
Tempo markers - = BPM(8/16=s8/s16), where s8 = swing 8ths, s16 = swing 16ths

Important: The song above is NOT stored on the Chordie server. The original song is hosted at www.guitartabs.cc. Chordie works as a search engine and provides on-the-fly formatting. Chordie does not index songs against artists'/composers' will. To remove this song please click here.

Text color:
Chord color:
Chord grids: 
Font size:    
Page size: 

Ab/G Abmaj7 Am7+5 Bb7 C C5 Cadd9/Bb Cm7 Cm9 Csus4 D/C Fm7 Gmaj7
Rate #2 of 3 versions

Login - add to songbook

SHARE PAGE  




You need to log in to post comments