Guitar Tabs, Chords and Lyrics
Major upgrade!! After one year development the new version of Chordie is now online! Please give feedback.


Among the Poor  Jeremy Riddle

Artist - Jeremy Riddle
************************
Song - Among The Poor
**********************
Album - The Now And Not Yet
*****************************
Tabbed By - Ayreon77
**********************
INTRO
******
ELECTRIC - Theres is Delay on this guitar
 
 [-10----10----10----10-----14-14-9----9----]
 [----12----12----12----12----------12---12-]
 [------------------------------------------]
 [------------------------------------------]
 [------------------------------------------]
 [------------------------------------------]

| |
| ACOUSTIC |X2
|Bm D G |
 
 [---------|---------|---------]
 [-----3---|-----3---|-----3---]
 [---4---4-|---4---4-|---4---4-]
 [---------|---------|---------]
 [-2-------|-0-------|---------]
 [---------|---------|-3-------]
 ----------------------------------------------

PICK - Use The Picking Above
VERSE 1
********
[Bm] Lord I've [D]said I want to [G]serve You
[Bm] I've been so [D]eager to [G]love
[Bm] And how I've [D]longed so much to [G]find You
just to [Em]be where You [Bm]are. [D] [G]
ELECTRIC - Theres is Delay on this guitar
 
 [-10----10----10----10-----14-14-9----9----]
 [----12----12----12----12----------12---12-]
 [------------------------------------------]
 [------------------------------------------]
 [------------------------------------------]
 [------------------------------------------]
 ----------------------------------------------

PICK
VERSE 2
********
[Bm] But it [D]seems I've [G]forgotten
[Bm] Where You [D]are and what You [G]look like
[Bm] I hear Your [D]words speak to [G]me
As You [Em]remind me [Bm]again. [D] [G]
ELECTRIC - Theres is Delay on this guitar
 
 [-10----10----10----10-----14-14-9----9----]
 [----12----12----12----12----------12---12-]
 [------------------------------------------]
 [------------------------------------------]
 [------------------------------------------]
 [------------------------------------------]
 ----------------------------------------------

Use This For The Picking For The CHORUS Below
[D] [A] [Bm] [G] [Em]  
 
 [---------|---------|---------|---------|---------]
 [-----3---|-----3---|-----3---|-----3---|-----3---]
 [---4---4-|---4---4-|---4---4-|---4---4-|---4---4-]
 [-0-------|---------|---------|---------|---------]
 [---------|-0-------|-2-------|---------|---------]
 [---------|---------|---------|-3-------|-0-------]

PICK & STRUM GUITARS
CHORUS
******* ELECTRIC GUITAR
 
 D A [---10-9---]
 You're among the poor [-7------7-]
 Bm G [----------]
 You're close to the broken [----------]
 D A [----------]
 The least of these [----------] 

The [Em]lowest of the [G]low
[D] You're among the [A]weak
The [Bm]hungry, the [G]thirsty
[D] And as I [A]do unto [Em]them
I've done unto [Bm]You
I've done unto You
ELECTRIC GUITAR
 
 [---10-9----------|---10-9------7----p--]
 [-7------7----7---|-7------7-10---7-8-7-]
 [-----------9-----|---------------------]
 [---------------9-|---------------------]
 [-----------------|---------------------]
 [-----------------|---------------------]
 ----------------------------------------------

ELECTRIC GUITAR - Play This With Verse 3 Below
 
 [---s-------|----s----------|----s-------|---s---10-12-]
 [-15\12-15--|--15\12-10-12--|--15\12-15--|-15\12-------]
 [-----------|---------------|------------|-------------]
 [-----------|---------------|------------|-------------]
 [-----------|---------------|------------|-------------]
 [-----------|---------------|------------|-------------]

[s]  
 
 [---s-------|----s-----s---14--|---s---14---s----|---s---10\12-10-]
 [-15\12-15--|--15\12-10\12-----|-15\12----15\12--|-15\12----------]
 [-----------|------------------|-----------------|----------------]
 [-----------|------------------|-----------------|----------------]
 [-----------|------------------|-----------------|----------------]
 [-----------|------------------|-----------------|----------------]

PICK - Use The Picking Above
VERSE 3
********
[Bm] We are Your [D]people, we bear Your [G]name
[Bm] God we [D]claim to seek [G]Your ways
[Bm] But have we [D]neglected Your [G]cries
Have we [Em]looked past Your [Bm]face. [D] [G]
 
 ----------------------------------------------

PICK & STRUM GUITARS
CHORUS
*******
 
 ----------------------------------------------

BRIDGE
*******
[Em]See My face, [Bm]look in My eyes
[Em]Hear My voice, don't [Bm]ignore My plight.
ELECTRIC GUITAR
 
 [-10------7--------------2---]
 [----10-8---7-10--5-8--3---0-]
 [----------------------------]
 [----------------------------]
 [----------------------------]
 [----------------------------]
 ----------------------------------------------

PICK & STRUM GUITARS
CHORUS
*******
 
 ----------------------------------------------

ENJOY.........

Important: The song above is NOT stored on the Chordie server. The original song is hosted at www.guitartabs.cc. Chordie works as a search engine and provides on-the-fly formatting. Chordie does not index songs against artists'/composers' will. To remove this song please click here.

Text color:
Chord color:
Chord grids: 
Font size:    
Page size: 

A Bm D Em G
Rate #0 of 1 versions

Login - add to songbook

SHARE PAGE  



You need to log in to post comments