Guitar Tabs, Chords and Lyrics
Server problems seems to be fixed. Chordie has been experiencing problems with songs disappearing. These issues now seems to be fixed, but still verifying the fix. If you find anything strange, please email admin@chordie.com.


Why Don't You Kiss Her?  Jesse McCartney

Hey everyone, this is My VERY VERY VERY first tab.. i think it's a bit close to the
not 100% accurate but i'll try my best cuz i've self taught myself on the Guitar so the
names might be a bit Stupid but forgive me ^_^ Love you All!!!
Why don't you kiss her?
By: Jesse McCartney
Chords By: Dana Jones.
G Am Bm G (picking would be better, it's not really accurate, i can sense the Horrible
:D)
 
 E --------------------------------------------------------|
 B --------------------------------------------------------|
 G ---------0-------------0---------------2----------------|
 D ------0-----0------0-----0---------2------2-------------|
 A --------------------------------0-------------0---------|
 E ----3----------3----------------------------------------|

[G] [Am] 
 
 E -------------------------------------------|
 B -------------------------------------------|
 G --------4-------4-------------5-----------|
 D -----4---4---4----4-------5----5----------|
 A ---2--------2------------3---------5------|
 E ------------------------------------------|

[Bm] [B#m]  
Verse I:
[Em]we're the best of friends
we [C]shared o[G]ur Secr[D]ets
[Em]she knows everything
that [C]is on my mind[G].... Ohooo[D]o
[Em]Lately somethings changed
As I l[C]ie awa[G]ke in my bed[D]
A voice here ins[C]ide my head
[D]Softly says
Chorus:
Why don't you Kiss?[G]
Am (or C)
why don't you Tell her
Why don't you let her see[Bm]
the feelings that you hide[B#m]
she'll never know[G]
Am (or C)
if you never show
the way you feel inside[B#m]
Verse II:
[Em]Oh im so afraid to ma[C]ke th[G]at fi[D]rst move
[Em]Just a touch and we
Could c[C]ross the li[G]ne......oohh[D]hohoooo
[Em]Everytime she's near
I wanna n[C]ever l[G]et her go[D]
Confess to her what m[C]y heart knows
[D]Hold her close
**Repeat Chorus**
Bridge:
What would she sa[D-Em]y?
i wonder if she'd j[D]ust turn away
or would she pr[C]omise me that she's[Em] here to stay
it hurt[D]s me the way
i kee[C]p asking my self[D]
The Last Chorus, i'm still working on it (the tone change).
i hope the first two verses and the chorus were a least acceptable...please
me at teenz_beat@hotmail.com and correct them if i'm wrong, and i'd really appreciate Y'all!!!

Important: The song above is NOT stored on the Chordie server. The original song is hosted at www.guitartabs.cc. Chordie works as a search engine and provides on-the-fly formatting. Chordie does not index songs against artists'/composers' will. To remove this song please click here.

Text color:
Chord color:
Chord grids: 
Font size:    
Page size: 

Am Bm C D Em G
Rate #1 of 2 versions

Login - add to songbook

SHARE PAGE  



You need to log in to post comments