Guitar Tabs, Chords and Lyrics
Server problems seems to be fixed. Chordie has been experiencing problems with songs disappearing. These issues now seems to be fixed, but still verifying the fix. If you find anything strange, please email admin@chordie.com.


All You Have to Do  Jet

Artist - Jet
Album - Shine On
Song - All You Have to Do
All You Have To Do- Jet- Guitar Tab
Chords used in this song:
[G] [A] [C] [Cm] [E] [D]  
 
 E---3--0--0--3--0--2--]
 B---3--2--1--4--0--3--]
 G---0--2--0--5--1--2--]
 D---0--2--2--5--2--0--]
 A---2--0--3--3--2-----]
 E---3-----------0-----]

For the first 3 seconds of the song, there is a VERY quite Guitar part played on G- Then
and the rest of the instruments come in
[G] [G]All You Have to Do!...[A]All You Have to Do! [C]Ahhhhhh [Cm]AHhhhhh...
(This Next part is the Piano/Vocals part...(with a little guitar)
Ohhh! The things You do.... (even the people, even the music...etc...)
 
 E----3-----------------------]
 B----3-----------------------]
 G----3-----------------------]
 D----------------------------] Repeat until...
 A----------------------------]
 E----------------------------]

Gone Away There nothing that I could change....
 
 E--------3----------3-------------3-----------3--------]
 B-----4----4-----4-----4------4------4-----4----4------]
 G--5----------4------------3------------4----------5---] (fade)
 D------------------------------------------------------]
 A------------------------------------------------------]
 E------------------------------------------------------]

OHhh! The things that you don't do... (even the music, even the people etc..)
 
 E----3------------------3---------]
 B----3------------------3---------]
 G----3------------------3---------] Repeat untill...
 D---------------------------------]
 A---------------------------------]
 E---------------------------------]

Gone Away There nothing that I could change....
 
 E--------3----------3-------------3-----------3--------]
 B-----4----4-----4-----4------4------4-----4----4------]
 G--5----------4------------3------------4----------5---] (fade)
 D------------------------------------------------------]
 A------------------------------------------------------]
 E------------------------------------------------------]

then comes the main riff again---
[G]All You Have to Do [A]All You Have to Do! [C]Ahhhhhhhh [C]Ahhhhhhh (OHH!)
 
 OHHH! The Times Ive Tried!-----------](even the people, even the games...etc)
 E----3-------------------------------]
 B----3-------------------------------]
 G----3-------------------------------] Repeat untill...
 D----------------------X2-X2-X2-X3---]
 A----------------------X2-X2-X2-X3---]
 E----------------------X0-X0-X0-X1---]

Gone Away There nothing that I could change....
 
 E--------3----------3-------------3-----------3--------]
 B-----4----4-----4-----4------4------4-----4----4------]
 G--5----------4------------3------------4----------5---] (fade)
 D------------------------------------------------------]
 A------------------------------------------------------]
 E------------------------------------------------------]

Then the Main Riff Once more...(Where the Sha la la's come in)
[G]All You Have To Do! [A]All You Have to Do! [C]Ahhhhhhhhh[G]Ahhhh
[D]All You Have To Do! [E]All You Have To Do! [C]Ahhhhhhhhhhhhhh[A]hhhhhh
At this point the Climbing Guitar Solo begins, just follow the chords and change when its supposed to...
 
 E---0--2--1--0--0--3--0--2--4--2--5--7--8--]
 B---2--3--3--2--0--3--2--3--5--3--4--6--7--]
 G---2--4--3--2--1--0--2--4--6--2--2--4--5--]
 D---2--4--3--2--2--0--2--4--6--0-----------]
 A---0--2--1--0--2--2--0--2--5--------------]
 E---------------0--3-----------------------]

Then comes back to...(where Shine On's Come In)
[D]All You Have to Do! [E]All You Have to Do! [C]Ahhhhhhhhh
(shine on) (shine on) (Shine On)
[G]All You Have to Do! [A]All You Have To Do! [C]Ahhhhhhh [G]Ahhhh
(Shine On) (Shine on) (Shine On)
[D]All You Have To do! [E]All You Have To Do! [C]Ahhhhhhh[G]Ahhhh
(Shine On) (Shine On) (Shineee onn...)
At the end the song ends with acoustic guitar and ends
[G] [A] [C] [G]  
The End! Thats pretty Much it!
Any Questions, Quarrels, or Queries welcome, so are suggestions...
THanks For Readin!
Signed JB!

Important: The song above is NOT stored on the Chordie server. The original song is hosted at www.guitartabs.cc. Chordie works as a search engine and provides on-the-fly formatting. Chordie does not index songs against artists'/composers' will. To remove this song please click here.

Text color:
Chord color:
Chord grids: 
Font size:    
Page size: 

A C Cm D E G
Rate #1 of 2 versions

Login - add to songbook

SHARE PAGE  



You need to log in to post comments