Guitar Tabs, Chords and Lyrics
Server problems seems to be fixed. Chordie has been experiencing problems with songs disappearing. These issues now seems to be fixed, but still verifying the fix. If you find anything strange, please email admin@chordie.com.


Mid-Day Anonymous  Jets to Brazil

 
 -------------------------------------------------------------------------------

Mid-day Anonymous - Jets To Brazil
 
 -------------------------------------------------------------------------------

Tabbed by: Mike Protas
Email: Insomniac_210@hotmail.com
Tuning: Standard
Churchy Intro Riff
 
 e|----------2--------|----------4--------|----------2--------|-------------------|
 B|--4---4-------4----|--5---5-------5----|--4---4-------4----|------2---2-4-2-0--|
 G|----4---4---4---4--|----4---4---4---4--|----4---4---4---4--|--3-4---4----------|
 D|-------------------|-------------------|-------------------|-------------------|
 A|-------------------|-------------------|-------------------|-------------------|
 E|-------------------|-------------------|-------------------|-------------------|

[B]what will you [F#]do to [E]turn this [B]around
[B]many behind [F#]you so [E]many before [B]you
[B]ticket in [F#]one hand [E]gun in the [B]other
[B]what will you [F#]do which [E]hand will you [B]use?
B, F#, E, B X2
[B]came on the [F#]run and [E]you will leave [B]running
[B]there's always [F#]someone to [E]keep you from [B]thinking
[B]loving her [F#]desperately [E]knowing you're [B]leaving
[B]what will you [F#]do now with [E]no one to go [B]to?
B, F#, E, B X2
[E]there are so many [B]places to see
[F#]there are so many [E]people to [B]be
[E]this country was [B]promised to [F#]me from the [E]start
[E5]the kids. the park. the crosshairs find their mark.
[B5]i think i'm the [A5]sum of what's [E5]before and what's to come
[B5]saint with a [A5]scope and a [E5]holster full of hope
it [B5]depends it [A5]depends some [E5]stories never end
A5 E/Ab (Riff 1 X2)
but mine unwinds in seconds
Riff 1
 
 e|----------------------------|
 B|----------------------------|
 G|----------------------------|
 D|-2-------------2------------|
 A|-2--5-4-2-5----2--5-4-2-4---|
 E|-0-------------0----------3-|

Repeat Intro Riff
[B]what will you [F#]do to [E]save your own [B]life
[B]drink yourself [F#]brilliant, make [E]love to your [B]image
[B]dad's on the [F#]left side, [E]mom's on the [B]right
[B]what will you [F#]do now to [E]keep them [B]divided?
B, F#, E, B X2
[B]eyes out the [F#]window the [E]folly of [B]humans
[B]mid-day an[F#]onymous when [E]guns find their [B]purpose
[B]end of the [F#]country the [E]end of the [B]century
[B]ending of [F#]everything the [E]ending is [B]everything
[E]there are so many [B]people in me
[F#]there are so many [E]women to [B]meet
[E]remember me [B]to all the [F#]ones i have [E]lost
[E5]the glock is cocked. the sheep begin to drop
[B5]i think i'm the [A5]sum of what's [E5]before and what's to come
[B5]saint with a [A5]scope and a [E5]pocketful of dope
[B5]seven stars! [A5]seven stars! [E5]the kingdom is all ours
A5 E/Ab A5 E/Ab (Riff 1 X4)
the stairs the light the street the blue and whites
B5, A5, E5
[B5]deep in the [A5]flat with the [E5]technicolor cat
and [B5]hey my [A5]varicose [E5]guilt!
Chords Used:
[B] [F#] [E] [E5] [B5] [A5] [E/Ab]  
 
 e|-----|--2--|--0--|-----|-----|-----|-----|
 B|--4--|--2--|--0--|-----|-----|-----|-----|
 G|--4--|--3--|--1--|-----|--4--|-----|-----|
 D|--4--|--4--|--2--|--2--|--4--|--7--|--6--|
 A|--2--|--4--|--2--|--2--|--2--|--7--|--7--|
 E|-----|--2--|--0--|--0--|-----|--5--|--4--|

| / slide up
| \ slide down
| h hammer-on
| p pull-off
| ~ vibrato
| + harmonic
| x Mute note
===============================================================================

Important: The song above is NOT stored on the Chordie server. The original song is hosted at www.guitartabs.cc. Chordie works as a search engine and provides on-the-fly formatting. Chordie does not index songs against artists'/composers' will. To remove this song please click here.

Text color:
Chord color:
Chord grids: 
Font size:    
Page size: 

A5 B B5 E E/Ab E5 F#
Rate #1 of 2 versions

Login - add to songbook

SHARE PAGE  



You need to log in to post comments