Guitar Tabs, Chords and Lyrics
Server problems seems to be fixed. Chordie has been experiencing problems with songs disappearing. These issues now seems to be fixed, but still verifying the fix. If you find anything strange, please email admin@chordie.com.


You're the One I Want  Jets to Brazil

I've liked this song for years, but I had been too lazy to tab it out. I this is pretty
close. Sounds great with some light overdrive.
Standard Tuning
Verse 1:
[F] [Bb]  
 
 e|--1----------------------------1------------------------------------|
 B|--1----------------------------2------------------------------------|
 G|--2----------------------------3------------------------------------|
 D|--3----------------------------3------------------------------------|
 A|--3----------------------------1------------------------------------|
 E|--1-----------------------------------------------------------------|

Blooming black flower wine
Slashed arms and new cut smiles
Taller for the falling down
Stronger now without you around
Verse 2:
[F] [Bb]  
 
 e|--1----------------------------1------------------------------------|
 B|--1----------------------------2------------------------------------|
 G|--2----------------------------3------------------------------------|
 D|--3----------------------------3------------------------------------|
 A|--3----------------------------1------------------------------------|
 E|--1-----------------------------------------------------------------|

The prophecies were realized
When we gave them proper time
All truths come to light
[Move the Bb up to the 6th fret on the fourth line to play this little arpeggio and take
advantage of the Bb note on the high e.]
[F] [Bb]  
 
 e|--1-------------------------------------------------6----xxxx-------|
 B|--1----------------------------6---------------6------6--xxxx-------|
 G|--2----------------------------6----------6------6-------xxxx-------|
 D|--3----------------------------8--------8---8------------xxxx-------|
 A|--3----------------------------8-------------------------xxxx-------|
 E|--1----------------------------6-------------------------xxxx-------|

After lies have had their night
[G5] [Bb]  
 
 e|--------------------------------------------------------------------|
 B|--------------------------------------------------------------------|
 G|--------------------------------------------------------------------|
 D|--5----------------------------8------------------------------------|
 A|--5----------------------------8------------------------------------|
 E|--3----------------------------6------------------------------------|

And it's hard without you, but it's harder not to doubt you when
B5 (palm mute) Bb5 (palm mute) A?5(palm mute) Bb5
 
 e|--------------------------------------------------------------------|
 B|--------------------------------------------------------------------|
 G|--------------------------------------------------------------------|
 D|--------------------------------------------------8-----------------|
 A|--9---------------8---------------8---------------8-----------------|
 E|--7---------------6---------------5---------------6-----------------|

You're so polite I'm too uptight
Chorus:
F5 E?5 D?5
 
 e|--------------------------------------------------------------------|
 B|--------------------------------------------------------------------|
 G|--10--------------10--------------7---------------------------------|
 D|--10--------------10--------------8---------------------------------|
 A|--8---------------7---------------5---------------------------------|
 E|--------------------------------------------------------------------|

You've grown more beautiful
Since you took off
What can I do
I'm in love with you
And it won't stop
[G5] [Bb]  
 
 e|--------------------------------------------------------------------|
 B|--------------------------------------------------------------------|
 G|--------------------------------------------------------------------|
 D|--5----------------------------8------------------------------------|
 A|--5----------------------------8------------------------------------|
 E|--3----------------------------6------------------------------------|

You're the one I want You're the one I want
Verse 3:
[F] [Bb]  
 
 e|--1----------------------------1------------------------------------|
 B|--1----------------------------2------------------------------------|
 G|--2----------------------------3------------------------------------|
 D|--3----------------------------3------------------------------------|
 A|--3----------------------------1------------------------------------|
 E|--1-----------------------------------------------------------------|

Cookie crumbs and alcohol.
Crooked hands the band's on hold
'cause your shoulders make me old
[Move tbe Bb up to tbe 6tb fret on tbe fourtb line again.] 
[F] [Bb]  
 
 e|--1-------------------------------------------------6----xxxx-------|
 B|--1----------------------------6---------------6------6--xxxx-------|
 G|--2----------------------------6----------6------6-------xxxx-------|
 D|--3----------------------------8--------8---8------------xxxx-------|
 A|--3----------------------------8-------------------------xxxx-------|
 E|--1----------------------------6-------------------------xxxx-------|

And your concerns leave me cold
[G5] [Bb]  
 
 e|--------------------------------------------------------------------|
 B|--------------------------------------------------------------------|
 G|--------------------------------------------------------------------|
 D|--5----------------------------8------------------------------------|
 A|--5----------------------------8------------------------------------|
 E|--3----------------------------6------------------------------------|

And it's hard to leave you, but it's harder to believe you, harder to believe you
Chorus:
F5 E?5 D?5
 
 e|--------------------------------------------------------------------|
 B|--------------------------------------------------------------------|
 G|--10--------------10--------------7---------------------------------|
 D|--10--------------10--------------8---------------------------------|
 A|--8---------------7---------------5---------------------------------|
 E|--------------------------------------------------------------------|

When you smile
Crooked style
You've grown more beautiful
Since you took off
What can I do
I'm in love with you
And I can't stop
Bridge:
[Bb5] [C5] [F5] [Bb5]  
 
 e|--------------------------------------------------------------------|
 B|--------------------------------------------------------------------|
 G|--3-----------5-----------------------3-----------------------------|
 D|--3-----------5-----------3-----------3-----------------------------|
 A|--1-----------3-----------3-----------1-----------------------------|
 E|--------------------------1-----------------------------------------|

What's best for everyone is bound to hurt somebody
What's best for everyone is killing me
[Do eacb of tbe arpeggios four times.] 
[ x4 ] [ x4 ] [ x4 ] C5
 
 e|--------------------------------------------------------------------|
 B|--------8---------------8--------------8----------------------------|
 G|-----10---10---------10---10--------10---10-------------------------|
 D|--11--------------10--------------9--------------10-----------------|
 A|-------------------------------------------------10-----------------|
 E|-------------------------------------------------8------------------|

Let me down Set me down Let me down Easy
Solo:
 
 e|--------------------------------------------------------------------|
 B|--------------------------------------------------------------------|
 G|---------------------2---2-3-5-6---6/8-8---10-10-10-10--------------|
 D|-------------------3-----------------------------------8-8-8--------|
 A|---------0-1---1-4--------------------------------------------------|
 E|-1---1-3------------------------------------------------------------|
 e|--------------------------------------------------------------------|
 B|--------------------------------------------------------------------|
 G|--------------------------------------------------------------------|
 D|--10-8-7---7-8-10---------------------------------------------------|
 A|--------------------4-----------------------------------------------|
 E|--------------------------------------------------------------------|

Verse 4:
[F] [Bb]  
 
 e|--1----------------------------1------------------------------------|
 B|--1----------------------------2------------------------------------|
 G|--2----------------------------3------------------------------------|
 D|--3----------------------------3------------------------------------|
 A|--3----------------------------1------------------------------------|
 E|--1-----------------------------------------------------------------|

Blood crushed from a clock
I'm in love but we just talk
And your teeth make me weak
[Tbis time, instead of tbe arpeggio, you just do some bends on one string.] 
[F]  
 
 e|--1----------------------------------------------------------xxxx---|
 B|--1----------------------------------------------------------xxxx---|
 G|--2----------------------------------------------------------xxxx---|
 D|--3----------------------------------------------------------xxxx---|
 A|--3----------------------------8-b-r-b-r-b-r-b-r-------------xxxx---|
 E|--1----------------------------------------------------------xxxx---|

And you're keeping them from
[F] [Bb]  
 
 e|--1----------------------------1------------------------------------|
 B|--1----------------------------2------------------------------------|
 G|--2----------------------------3------------------------------------|
 D|--3----------------------------3------------------------------------|
 A|--3----------------------------1------------------------------------|
 E|--1-----------------------------------------------------------------|

ME!
Outro Riff:
 
 e|--------------------------------------------------------------------|
 B|-10---10-11-13----------10---10-11-13-------------------------------|
 G|------------------12b--------------------12b--10--------------------|
 D|---------------11---------------------11----------------------------|
 A|--------------------------------------------------------------------|
 E|--------------------------------------------------------------------|

That's it!

Important: The song above is NOT stored on the Chordie server. The original song is hosted at www.guitartabs.cc. Chordie works as a search engine and provides on-the-fly formatting. Chordie does not index songs against artists'/composers' will. To remove this song please click here.

Text color:
Chord color:
Chord grids: 
Font size:    
Page size: 

Bb Bb5 C5 F F5 G5
Rate #1 of 3 versions

Login - add to songbook

SHARE PAGE  




You need to log in to post comments