Guitar Tabs, Chords and Lyrics
Major upgrade!! After one year development the new version of Chordie is now online! Please give feedback.


Angel  Jimi Hendrix

 
 -------------------------------------------------------------------------------

Angel (Acoustic version) - Jimi Hendrix
 
 -------------------------------------------------------------------------------

Tabbed by: J.S.L
Email: jonas.lindstroem@yahoo.se
Tuning: Half-Step Down.
Intro:
[F] [C] [A#]  
 
 e|---------------------------------------------------------------------------|
 B|--1------------------1-----------------------------------------------------|
 G|--2--2h3p2-----------2-----5---------3---------3---------------------------|
 D|--3---------3--------3-----5---------3h5p3-----3-------3--5/7--5--3--------|
 A|--3------------------3-----3----3h5---------5--1--3h5----------------5-----|
 E|--1------------1--1-----1--------------------------------------------------|

[C#]  
 
 e|---------------------------------------------------------------------------|
 B|---------------------------------------------------------------------------|
 G|--------1-----------1------------------------------------------------------|
 D|-----3-----3-----3-----3---------------------------------------------------|
 A|--4-----------4------------------------------------------------------------|
 E|---------------------------------------------------------------------------|

[F] Angel [C]came down from [G]heaven yesterday
[A#] She stayed with me [D#]just long enough for [F]afternoon tea
[F] And she [C]told me a [G]story yesterday,
[A#] about the love between the [D#]moon and the [F]deep blue sea
And [G]when it was time for her to [A#]go,
she spread her wings [F]high over me
And she [G]said "I [A]shall return to[A#]morrow"[B]
And I said "[E]fly on [B]my sweet [F#]angel,
[C]fly [A]on [D]through [B]the [E]sky,
[E]fly on [B]my sweet [F#]angel,
[C]I'll [A]wait for [D]you [B]by my [E]side"
|E |F# |
|A B |C# |
[F#] And sure enou[C#]gh this mor[G#]ning comes to me
[B] When silver wings silhou[E]etted against the glow of the [F#]child's sunrise
[F#] And as the [C#]bluebirds and the spar[G#]rows envy me,
[B] she says "I love you little boy[E]
and today [F#]you shall fly"
She [G#]kissed me once
[B] and the feelings so [F#]good she made me cry
And [G#]now, we can [A#]fly to[B]gether[E]
And I said "[E]fly on [B]my sweet [F#]angel,
[C]fly [A]on [D]through [B]the [E]sky,
[E]fly on [B]my sweet [F#]angel,
to[C]gether [A]we shall [D]always [B]be [E]high"
[C]Mmm - [A]mm - [D]mm - [B]mm - [E]mmm...

Important: The song above is NOT stored on the Chordie server. The original song is hosted at www.guitartabs.cc. Chordie works as a search engine and provides on-the-fly formatting. Chordie does not index songs against artists'/composers' will. To remove this song please click here.

Text color:
Chord color:
Chord grids: 
Font size:    
Page size: 

A A# B C C# D D# E F F# G G#
Rate #0 of 19 versions

Jango Player

Login - add to songbook

SHARE PAGE  




You need to log in to post comments