Guitar Tabs, Chords and Lyrics
Major upgrade!! After one year development the new version of Chordie is now online! Please give feedback.


Drifting  Jimi Hendrix

 
 -------------------------------------------------------------------------------

Drifting - Jimi Hendrix
 
 -------------------------------------------------------------------------------

***Chord symbols reflect position
intro [E]
verse
[E] [Eb] [D] [Ab] 
 
 Gb|---------------|--------------|------------------|-----------------|
 Db|*--------------|--------------|------------------|-----------------|
 Ab|*-7---------7--|-6-------6-6--|-5----5--5---5-4r-|-----------------|
 Eb|---------7-----|--------------|------------------|-4---4--4-4----4-|

[B] [A] [Db] [A] [E] 
 
 Gb|-------------------|-------------|------------------|-----------------|
 Db|---------------0---|-------------|---------------0--|-----------------|
 Ab|-2--0--4-----02-2--|----------0--|-2--0--4-----02-2-|-2r--------------|
 Eb|-----------02------|--------02---|-----------02-----|----5----0---0-0-|

[G] [A] [G] [B] (1st time) (2nd time)
 
 Gb|------------------|------------------|------------------|------------------|------------------|
 Db|------------------|------------------|------------------|-----------------*|------------------|
 Ab|---5---5---5---5--|---7---7---7---7--|---5---5---5---5--|-----------------*|------------------|
 Eb|-3---3---3---3----|-5---5---5---5----|-3---3---3---3----|-7-7-7-7-7-7-7--r-| -7-7-7-7-7-7-765-|

(1:42) (repeat progression 4x)
[G] [A] [G] [F] 
[G] [B] 
[C] 
 
 Gb|------------------|
 Db|---10------10-----|
 Ab|------------------|
 Eb|-8-----8----------|


Important: The song above is NOT stored on the Chordie server. The original song is hosted at www.guitartabs.cc. Chordie works as a search engine and provides on-the-fly formatting. Chordie does not index songs against artists'/composers' will. To remove this song please click here.

Text color:
Chord color:
Chord grids: 
Font size:    
Page size: 

A Ab B C D Db E Eb F G
Rate #1 of 4 versions

Jango Player

Login - add to songbook

SHARE PAGE  



You need to log in to post comments