Guitar Tabs, Chords and Lyrics
Server problems seems to be fixed. Chordie has been experiencing problems with songs disappearing. These issues now seems to be fixed, but still verifying the fix. If you find anything strange, please email admin@chordie.com.


A Cool New Way  Joe Satriani

A Cool New Way - Jo Satriani
Tuning:Standard
W W W
 
 E||-------------------|-------------------|-------------------|
 B||-------------------|-------------------|-------------------|
 G||-------------------|-------------------|-------------------|
 D||-------------------|-------------------|-------------------|
 A||-------------------|-------------------|-------------------|
 E||-------------------|-------------------|-------------------|

W W W W
 
 -------------------|-------------------|-------------------|-------------------|
 -------------------|-------------------|-------------------|-------------------|
 -------------------|-------------------|-------------------|-------------------|
 -------------------|-------------------|-------------------|-------------------|
 -------------------|-------------------|-------------------|-------------------|
 -------------------|-------------------|-------------------|-------------------|

W H Q S S S S
 
 -------------------|---------------------------|
 -------------------|---------------------15-17-|
 -------------------|------------------16-------|
 -------------------|---------------------------|
 -------------------|---------------------------|
 -------------------|---------------------------|
 |----3----| |----3----| 

E S S Q S S E S S Q S S
 
 --14--------------------------14------------------|
 ------15-17~--L~----15----15-----17~--L~----15----|
 -----------------------16----------------------16-|
 --------------------------------------------------|
 --------------------------------------------------|
 --------------------------------------------------|

E S S E. S S S E Q S T T E E S S H
 
 -------------------------------------|-----------------------------------|
 --14b--14-----------------12---------|-----------------------------------|
 ----------14--Ls---12s-14------------|--11h-12p-11s-9--9s--7s-9----------|
 -------------------------------------|-----------------------------------|
 -------------------------------------|-----------------------------------|
 -------------------------------------|-----------------------------------|
 |----3----| |---3---| 

H Q S S S S E S S Q S S E S S S E E
 
 ---------------------------|--14--------------------------14h-15p-14s-12s--10--|
 ---------------------15-17-|------15-17~--L~----15----15-----------------------|
 ------------------16-------|-----------------------16--------------------------|
 ---------------------------|---------------------------------------------------|
 ---------------------------|---------------------------------------------------|
 ---------------------------|---------------------------------------------------|

S S S S E S S S S E S S E E E E S S H
 
 -----------------------------------------------|------------------------------|
 ----12-14b-14--Ls--12p-10----------------------|------------------------------|
 --------------------------12-12-14--14-12s-11--|--11~--9--9~--9g7h-9----------|
 -----------------------------------------------|------------------------------|
 -----------------------------------------------|------------------------------|
 -----------------------------------------------|------------------------------|

S T T E E S S H
 
 -------------------------------------|
 -------------------------------------|
 --11h-12p-11s-9--9~--9g7h-9----------|
 -------------------------------------|
 -------------------------------------|
 -------------------------------------|

S S S S E. S S S S S E. S
 
 --------------------------------------------------|
 --------------------------------------------------|
 -------12-14g16-14~------12---14g16-14~--L~----L\-|
 ----14----------------14--------------------------|
 --------------------------------------------------|
 --------------------------------------------------|

S S S S E. S S S S S E S S
 
 ------------------------------------------------|
 ------------------------------------------------|
 -------12-14g16-14~-----------------------------|
 ----14----------------14-12-14---14~--L~--12-14-|
 ------------------------------------------------|
 ------------------------------------------------|

S S S S E. S S S S S E. S
 
 --------------------------------------------------|
 --------------------------------------------------|
 -------12-14g16-14~------12---14g16-14~--L~----L\-|
 ----14----------------14--------------------------|
 --------------------------------------------------|
 --------------------------------------------------|
 |----3----| 

S S S S Q S S S S S S S S S S
 
 --------------------------------------------------|
 --------------------------------------------------|
 -------12-14g16-14p----12-------------------------|
 ----14--------------------14-12-14---14---14---14-|
 --------------------------------------------------|
 --------------------------------------------------|

S S S S E. S S S S S Q
 
 --------------------------------19s-17~--L~----|
 -----------------------------------------------|
 -------12-16s-14~------12---16s-14~--L~----|
 ----14----------------14-----------------------|
 -----------------------------------------------|
 -----------------------------------------------|

S S S S E. S S S S S Q
 
 -------15-19s-17~------15---19s-17~--L~----|
 ----17--------------17---------------------|
 -------12-16s-14~------12---16s-14~--L~----|
 ----14--------------14---------------------|
 -------------------------------------------|
 -------------------------------------------|

S S S S E. S S S S S Q
 
 -------15-19s-17~------15---19s-17~--L~----|
 ----17--------------17---------------------|
 -------12-16s-14~------12---16s-14~--L~----|
 ----14--------------14---------------------|
 -------------------------------------------|
 -------------------------------------------|

S S S S E. S S S S S S S S S
 
 -------15-19s-17~------15---19s-17--L-------------|
 ----17--------------17----------------------15-17-|
 -------12-16s-14~------12---16s-14--L-16g14-------|
 ----14--------------14----------------------------|
 --------------------------------------------------|
 --------------------------------------------------|
 |----3----| |----3----| 

E S S Q S S E S S Q S S
 
 --14-----------------------------------------------|
 ------15-17~--L~----15----14b--14------------------|
 -----------------------16---------14~--L~----12----|
 ------------------------------------------------14-|
 ---------------------------------------------------|
 ---------------------------------------------------|

S S S S S S S S S E. S S S S
 
 -----------------------------------------------|
 -------------12-12br--L------------------------|
 -------12-14------------14-12-11~--------------|
 ----14------------------------------14-12---12-|
 -----------------------------------------------|
 -----------------------------------------------|

S T T E E. S S S E Q
 
 ----------------------------------------|
 ----------------------------------------|
 --11h-12p-11----------------------------|
 -------------14~--14~---12---14---------|
 ----------------------------------------|
 ----------------------------------------|
 |---3--| |---6--| |---6--| 

H S S S S S S S S S S S
 
 --------------------12--------12--------12-12-|
 -------------12-15b----12-15b----12-15b-------|
 ----------------------------------------------|
 ----------------------------------------------|
 ----------------------------------------------|
 ----------------------------------------------|

E S S E. S E S S E. S
 
 --14-----------------------------------------|
 ------15-17~--L~------15--17g19-17~--L~------|
 -------------------16---------------------16-|
 ---------------------------------------------|
 ---------------------------------------------|
 ---------------------------------------------|
 |----3----| 

E S S Q S S S S E S S E
 
 ----------------------------------------------|
 --14b--14-----------------12------------------|
 ----------14--Ls----12-------14-12--14-12-----|
 -----------------------14-----------------14--|
 ----------------------------------------------|
 ----------------------------------------------|

S T T E Q S S S S S S S S
 
 ----------------------------------------------|
 ----------------------------------------------|
 --11h-12p-11----------------------------------|
 -------------14--14~----12h-14---14---14---14-|
 ----------------------------------------------|
 ----------------------------------------------|

S S E S S S S S E S S S E
 
 -------------------------------------------|
 --------------------------0-----0----0-----|
 -------------------------------------------|
 --12h-14-14---L-14-12h-14---14----14---14--|
 -------------------------------------------|
 -------------------------------------------|

E S S E. S E S S S S S S
 
 --22--17-19~--L~---17-22--17-19~--L~---------|
 -------------------------------------20------|
 ------------------------------------------16-|
 ---------------------------------------------|
 ---------------------------------------------|
 ---------------------------------------------|
 |---3--| |---6--| |---6--| |---3---| 

E S S E S S S S S S S S S S S Q
 
 --22--17-19--L--17s-15---------------------------------------|
 -----------------------17-15---------------------------------|
 -----------------------------16s-14-12-----------------------|
 ---------------------------------------14p-12----------------|
 ----------------------------------------------14p-12s-10~----|
 -------------------------------------------------------------|

E S S E. S E S S S S E
 
 --22--17-19~--L~---17-22--17-19~--L~-------|
 -------------------------------------20----|
 -------------------------------------------|
 -------------------------------------------|
 -------------------------------------------|
 -------------------------------------------|

S S S T T S S S S S S S S S S S S
 
 ----22br--L-21br--Lp-19-17br--L-15br--L-14br--L-12--L-------------|
 ------------------------------------------------------15br--Lp-12-|
 ------------------------------------------------------------------|
 ------------------------------------------------------------------|
 ------------------------------------------------------------------|
 ------------------------------------------------------------------|

E S S E. S E S S S S E
 
 --14------------------------------------------|
 ------15-17~--L~------15--17g19-17~--L~-------|
 -------------------16-------------------16----|
 ----------------------------------------------|
 ----------------------------------------------|
 ----------------------------------------------|

S S S S E S S S E. S S S S
 
 ------------------------------------------------|
 ----12-14b-14~--L~--12------12g14---12----------|
 -----------------------14--------------14-12----|
 ---------------------------------------------14-|
 ------------------------------------------------|
 ------------------------------------------------|

( Tab from: http://www.guitartabs.cc/tabs/j/joe_satriani/a_cool_new_way_tab.html )
S T T E Q S S S S S S S S
 
 ---------------------------------------------|
 ---------------------------------------------|
 --11h-12p-11---------------------------------|
 -------------14--14~----12-14---14---14---14-|
 ---------------------------------------------|
 ---------------------------------------------|

S T T E E S S E E E E
 
 ----------------------------------------------|
 ----------------------------------------------|
 --11h-12p-11----------------------------------|
 -------------14--14--12-14~--L~--14~--14/-----|
 ----------------------------------------------|
 ----------------------------------------------|
 |--3--| |---3--| |---3--| |--3--| 

[E] [E] [E] [E] [E] [E] [E] [E] [E] [E] [E] [E]  
 
 --10--8--7--8--7------7-------------------|
 ------------------10-----10--8--10--8--7--|
 ------------------------------------------|
 ------------------------------------------|
 ------------------------------------------|
 ------------------------------------------|
 |---3---| |---3---| 

E E E E E E S S S S Q
 
 --/14--12--10--12--10---------------------------|
 -----------------------13--13s-15-15-15~--L~----|
 ------------------------------------------------|
 ------------------------------------------------|
 ------------------------------------------------|
 ------------------------------------------------|
 |---3---| |---3---| |---3---| |---3---| 

[E] [E] [E] [E] [E] [E] [E] [E] [E] [E] [E] [E]  
 
 --14g15--14------14----------------------------------|
 -------------17------17--15--17--15--13--15--13------|
 -------------------------------------------------16--|
 -----------------------------------------------------|
 -----------------------------------------------------|
 -----------------------------------------------------|
 |---3---| |---3---| 

E E E S T T T E S E S Q
 
 --17--15--14--15-14h-15p-14-12--14h-15--15br-14~----|
 ----------------------------------------------------|
 ----------------------------------------------------|
 ----------------------------------------------------|
 ----------------------------------------------------|
 ----------------------------------------------------|
 |---3---| |-----3-----| |---3---| |---3---| 

E E E S S E E E E E E E E
 
 --20--19--17--19br--L-17--15--17--15--14--15--14--12--|
 ------------------------------------------------------|
 ------------------------------------------------------|
 ------------------------------------------------------|
 ------------------------------------------------------|
 ------------------------------------------------------|
 |---3---| |---3---| 

E E E E E E S S S S E. S
 
 --15g20--19--17--15--17--19--17b--Lpbr--Lb--Lpbr--L~----L\-|
 -----------------------------------------------------------|
 -----------------------------------------------------------|
 -----------------------------------------------------------|
 -----------------------------------------------------------|
 -----------------------------------------------------------|
 |---3---| |---3---| |---3---| |---3---| 

[E] [E] [E] [E] [E] [E] [E] [E] [E] [E] [E] [E]  
 
 --22--20--19--20--19--17--19--17--15--17--15--14--|
 --------------------------------------------------|
 --------------------------------------------------|
 --------------------------------------------------|
 --------------------------------------------------|
 --------------------------------------------------|
 |---3---| |---3---| 

E E E E E E H W W
 
 --22--20--19------19--20--22~--------|--22~----------------|-------------------|
 --------------22---------------------|---------------------|-------------------|
 -------------------------------------|---------------------|-------------------|
 -------------------------------------|---------------------|-------------------|
 -------------------------------------|---------------------|-------------------|
 -------------------------------------|---------------------|-------------------|

W W W W
 
 -------------------|-------------------|-------------------|-------------------|
 -------------------|-------------------|-------------------|-------------------|
 -------------------|-------------------|-------------------|-------------------|
 -------------------|-------------------|-------------------|-------------------|
 -------------------|-------------------|-------------------|-------------------|
 -------------------|-------------------|-------------------|-------------------|

W W W W
 
 -------------------|-------------------|-------------------|-------------------|
 -------------------|-------------------|-------------------|-------------------|
 -------------------|-------------------|-------------------|-------------------|
 -------------------|-------------------|-------------------|-------------------|
 -------------------|-------------------|-------------------|-------------------|
 -------------------|-------------------|-------------------|-------------------|

W W W W
 
 -------------------|-------------------|-------------------|-------------------|
 -------------------|-------------------|-------------------|-------------------|
 -------------------|-------------------|-------------------|-------------------|
 -------------------|-------------------|-------------------|-------------------|
 -------------------|-------------------|-------------------|-------------------|
 -------------------|-------------------|-------------------|-------------------|

W W W W
 
 -------------------|-------------------|-------------------|-------------------|
 -------------------|-------------------|-------------------|-------------------|
 -------------------|-------------------|-------------------|-------------------|
 -------------------|-------------------|-------------------|-------------------|
 -------------------|-------------------|-------------------|-------------------|
 -------------------|-------------------|-------------------|-------------------|

W W W W
 
 -------------------|-------------------|-------------------|-------------------|
 -------------------|-------------------|-------------------|-------------------|
 -------------------|-------------------|-------------------|-------------------|
 -------------------|-------------------|-------------------|-------------------|
 -------------------|-------------------|-------------------|-------------------|
 -------------------|-------------------|-------------------|-------------------|

W W W W
 
 -------------------|-------------------|-------------------|-------------------|
 -------------------|-------------------|-------------------|-------------------|
 -------------------|-------------------|-------------------|-------------------|
 -------------------|-------------------|-------------------|-------------------|
 -------------------|-------------------|-------------------|-------------------|
 -------------------|-------------------|-------------------|-------------------|

W W W W
 
 -------------------|-------------------|-------------------|-------------------|
 -------------------|-------------------|-------------------|-------------------|
 -------------------|-------------------|-------------------|-------------------|
 -------------------|-------------------|-------------------|-------------------|
 -------------------|-------------------|-------------------|-------------------|
 -------------------|-------------------|-------------------|-------------------|

W W W
 
 -------------------|-------------------|-------------------|
 -------------------|-------------------|-------------------|
 -------------------|-------------------|-------------------|
 -------------------|-------------------|-------------------|
 -------------------|-------------------|-------------------|
 -------------------|-------------------|-------------------|
 |----3----| |---3---| 

H Q S S S S E S S Q S S E S S S E E
 
 ---------------------------|--14--------------------------14h-15p-14s-12s--10--|
 ---------------------15-17-|------15-17~--L~----15----15-----------------------|
 ------------------16-------|-----------------------16--------------------------|
 ---------------------------|---------------------------------------------------|
 ---------------------------|---------------------------------------------------|
 ---------------------------|---------------------------------------------------|

S S S S E S S S S E S S S S
 
 -------------------------------------------------|
 ----12-14b-14--Ls--12p-10------------------------|
 --------------------------12-12-14--14-12s-11--x-|
 -------------------------------------------------|
 -------------------------------------------------|
 -------------------------------------------------|
 |---3---| 

E E E S S H S S S E E S S H
 
 ------------------------------|-------------------------------------|
 ------------------------------|-------------------------------------|
 --11~--9--9~--9g7h-9----------|--11h-12p-11s-9--9~--9g7h-9----------|
 ------------------------------|-------------------------------------|
 ------------------------------|-------------------------------------|
 ------------------------------|-------------------------------------|

W W W
 
 -------------------|-------------------|-------------------|
 -------------------|-------------------|-------------------|
 -------------------|-------------------|-------------------|
 -------------------|-------------------|-------------------|
 -------------------|-------------------|-------------------|
 -------------------|-------------------|-------------------|

W
 
 -------------------||
 -------------------||
 -------------------||
 -------------------||
 -------------------||
 -------------------||

Duration Legend
 
 ---------------

W - whole
H - half
Q - quarter
E - 8th
S - 16th
T - 32nd
X - 64th
. - note dotted
|-n-| - n-tuplets
Tablature Legend
 
 ----------------

L - tied note
x - dead note
g - grace note
(n) - ghost note
> - accentuded note
NH - natural harmonic
AH - artificial harmonic
TH - tapped harmonic
SH - semi harmonic
PH - pitch harmonic
h - hammer on
p - pull off
b - bend
br - bendRelease
pb - preBend
pbr - preBendRelease
brb - bendReleaseBend
\n/ - tremolo bar dip
\n - tremolo bar dive
-/n - tremolo bar Release up
/n\ - tremolo bar inverted dip
/n - tremolo bar return
-\n - tremolo bar Release down
S - shift slide
s - legato slide
/ - slide into from below or out of upwards
\ - slide into from above or out of downwards
~ - vibrato
W - wide vibrato
tr - trill
TP - tremolo picking
T - tapping
S - slap
P - pop
< - fade in
^ - brush up
v - brush down

Important: The song above is NOT stored on the Chordie server. The original song is hosted at www.guitartabs.cc. Chordie works as a search engine and provides on-the-fly formatting. Chordie does not index songs against artists'/composers' will. To remove this song please click here.

Text color:
Chord color:
Chord grids: 
Font size:    
Page size: 

E
Rate #1 of 3 versions

Login - add to songbook

SHARE PAGE  




You need to log in to post comments