Guitar Tabs, Chords and Lyrics
Server problems seems to be fixed. Chordie has been experiencing problems with songs disappearing. These issues now seems to be fixed, but still verifying the fix. If you find anything strange, please email admin@chordie.com.


Into the Light  Joe Satriani

INTO THE LIGHT
As recorded by Joe Satriani
(From the 1989 Album FLYING IN A BLUE DREAM)
Music by Joe Satriani
Transcribed by www.mikesguitarsite.co.uk
8[Csus2sus4] x x 7 6 8 8 [C7sus4]x x 8 6 8 8 x x[C] 9 8 8 x 3 [C5]5 5 x x
8 x [F/C]7 x 6 8
Intro
Q=60
[Csus2sus4] [C] [Csus2sus4] [C] 
[4/4] Gtr I
| | | |
[/] [/] [/] [/] 
Gtr II
~~
4x
 
 ||----------|----------||-------15b17---15-13-|-15----|
 ||o---------|---------o||----13---------------|-------|
 ||----------|----------||---------------------|-------|
 ||----------|----------||---------------------|-------|
 ||o---------|---------o||---------------------|-------|
 ||----------|----------||---------------------|-------|

[Csus2sus4]| [C] |
[/] [/]  
~~ ~~
 
 |-------15b17---15-13-|-15---(15)s20s15----|
 |----13---------------|--------------------|
 |---------------------|--------------------|
 |---------------------|--------------------|
 |---------------------|--------------------|
 |---------------------|--------------------|

[Csus2sus4] | [C] |
[/] [/] 
~~ ~~~~~~~ ~~
 
 |-(15)\-13-13s12-12s10-10---8s10-|-12-12b13==(12)r(12)-12-12-(12)----------|
 |--------------------------------|--------------------------------15s13----|
 |--------------------------------|-----------------------------------------|
 |--------------------------------|-----------------------------------------|
 |--------------------------------|-----------------------------------------|
 |--------------------------------|-----------------------------------------|

[Csus2sus4] | [C] |
[/] [/] 
~~~~ ~~ ~~~~~~~~[G]
 
 |---------------------------------------|---------------------|
 |-(13)--10s8s10h12h13--13b15==(13)r(13)-|-(13)-(13)-(13)------|
 |---------------------------------------|---------------------|
 |---------------------------------------|---------------------|
 |---------------------------------------|---------------------|
 |---------------------------------------|---------------------|

[Csus2sus4]|
[/]  
tr III
 
 |------------------------------------------------------------------------------------------------|
 |----12-12b13==(12)r(12)b13==(12)r(12)p10p8h12s13p12p10h13p10h12b13r(12)p10h13p10h12p10s12h13h15-|
 |--x---------------------------------------------------------------------------------------------|
 |------------------------------------------------------------------------------------------------|
 |------------------------------------------------------------------------------------------------|
 |------------------------------------------------------------------------------------------------|

[C] |
[/]  
 
 |--------------------------8h10h12p10p8-------------------------------------------------------------|
 |-15s13p12p10s8h10p8h10h12--------------12p8h10h12p10p8---------------------------------------------|
 |-------------------------------------------------------12-9-10-12-10-9-7---------------------------|
 |-------------------------------------------------------------------------10-9-7-9-10-9-7-----------|
 |-----------------------------------------------------------------------------------------10-8-7-8--|
 |---------------------------------------------------------------------------------------------------|

[Csus2sus4]|
[/]  
\1/ \1/
 
 |--------------------------------------------------------------------------------------------|
 |--------------------------------------------------------------------------------------------|
 |--------------------------------------------------------------------------------------------|
 |---------9h10h12-(12)p10p9s7h9-10p9p7-------------------------------------------------------|
 |-8h10h12------------------------------10p8p7h8h10p8p7s8h10h12p10p8s7------------------------|
 |---------------------------------------------------------------------10p8p7h8-(8)--(8)s10s8-|

[C] |
[/]  
~
 
 |------------------------------------------------------|
 |------------------------------------------------------|
 |------------------------------------------------------|
 |------------------------------------------------------|
 |-------------------------2h3-3h5p3p2h3h5s7--(7)s17S3h=|
 |-8s5h7p5p3h5-5p3p1h3p1h3------------------------------|

[Csus2sus4]|
[/]  
T T T T T T T T T T
 
 |------------------------------------------------------------------------------------------|
 |------------------------------------------------------------------------------------------|
 |------------------------------------------------------------------------------------------|
 |------------------------------------------------------------------------------------------|
 |-5-7p5p3h5-7p5p3h5-7p5-7p5-8p7s8-10p8p7h8p7s5h7-8p7s8-10p8-12p10-12p10p8-(8)s10h12p10h12--|
 |------------------------------------------------------------------------------------------|

[C] |
[/]  
T ~~~~~~
 
 |------------------------------------------------------|
 |------------------------------------------------------|
 |------------------------------------------------------|
 |------------------------------------------------------|
 |-15p12h14p12s10h12p10s8-(8)-7h8p7s5h7p5s3-(3)-3-3-2h3-|
 |------------------------------------------------------|

[Csus2sus4] | [C] |
[/] [/] 
~~~ ~~
 
 |---------------------------------------------15-17-19-20-20b22-20-|-20--(20)\-------------||
 |------------------------------------15-17-18----------------------|-----------------------||
 |---------------------------14-16-17-------------------------------|-----------------------||
 |------------------14-15-17----------------------------------------|------------\2---------||
 |-(3)-/14-14-15-17-------------------------------------------------|------------\3---3-3---||
 |------------------------------------------------------------------|-----------------------||

[Csus2sus4]| [C] |
[/] [/]  
Gtr II
 
 |------------15b17---15-13-|-15----(15)----|
 |-----/15-13---------------|---------------|
 |--------------------------|---------------|
 |-3------------------------|---------------|
 |-3------------------------|---------------|
 |--------------------------|---------------|

[Csus2sus4] | [C] |
[/] [/] 
/0.5\
~~~~ T T
 
 |-(15)----(15)------15b17---15-13-|-15--(15)-20p15-20p15--15---|
 |---------------/13---------------|----------------------------|
 |---------------------------------|----------------------------|
 |---------------------------------|----------------------------|
 |---------------------------------|----------------------------|
 |---------------------------------|----------------------------|

[Csus2sus4] |
[/]  
\1/ \1/
 
 |-(15)--13-13s12-12s10-10--(10)--(10)--8-10-|
 |-------------------------------------------|
 |-------------------------------------------|
 |-------------------------------------------|
 |-------------------------------------------|
 |-------------------------------------------|

[C] | [Csus2sus4] |
[/] [/] 
~~~~~~~~~~ ~~~~~~~~~~ ~~
 
 |-10s12-[12]b13==([12])r([12])-[12]-([12])--------|-----------------------------------|
 |------------------------------------------15s13--|-(13)-13s8s10-12-13-13-13b15r(13)--|
 |-------------------------------------------------|-----------------------------------|
 |-------------------------------------------------|-----------------------------------|
 |-------------------------------------------------|-----------------------------------|
 |-------------------------------------------------|-----------------------------------|

[C7sus4] | [F/C] |
[/] [/]  
 
 |-----------------------------------------------|
 |-----------------------------------------------|
 |-----------9b10r=(9)---------------------------|
 |---------------------10--5s=3--7b8r==(7)--5--3-|
 |-----------------------------------------------|
 |-----------------------------------------------|

|
| Gtr II
 
 |-----------------------------------------------|
 |-13--(13)-17b18r(17)-13------------------------|
 |------------------------12s10-14b15r(14)-12-10-|
 |-----------------------------------------------|
 |-----------------------------------------------|
 |-----------------------------------------------|

[C5] | | |
[/] [/] [/] 
 
 |--------------|---------------|----------------------*|
 |--------------|---------------|----------------------*|
 |--------------|---------------|----------------------*|
 |--3s=5--------|---------------|----------------------*|
 |--------------|---------------|----------------------*|
 |--------------|---------------|----------------------*|

|
| \7
| ~~~~~~~~~~~~~~~~~~~~~~~~~~~~~~~~~~
 
 |--------------|---------------|----------------------*|
 |--------------|---------------|----------------------*|
 |-10s12--------|-([12])--------|-([12])----([12])-----*|
 |--------------|---------------|----------------------*|
 |--------------|---------------|----------------------*|
 |--------------|---------------|----------------------*|

***************************************************************************************
* Generated using Power Tab Editor by Brad Larsen - http://powertab.guitarnetwork.org *
***************************************************************************************

Important: The song above is NOT stored on the Chordie server. The original song is hosted at www.guitartabs.cc. Chordie works as a search engine and provides on-the-fly formatting. Chordie does not index songs against artists'/composers' will. To remove this song please click here.

Text color:
Chord color:
Chord grids: 
Font size:    
Page size: 

C C5 C7sus4 F/C G
Rate #2 of 4 versions

Login - add to songbook

SHARE PAGE  




You need to log in to post comments