Guitar Tabs, Chords and Lyrics
Server problems seems to be fixed. Chordie has been experiencing problems with songs disappearing. These issues now seems to be fixed, but still verifying the fix. If you find anything strange, please email admin@chordie.com.


Up in the Sky  Joe Satriani

Intro / Main Theme
Moderately Fast Rock Q=152
N.C. (Em9)
[4/4] Gtr I
S S E S S E S S S S Q
 
 ||--------------------------------------|
 ||o----------------------------------|
 ||--------------------------------------|
 ||------------------------------------------------|
 ||o-----------------------------------------------|
 ||------------------------------------------------|

1.,2.,3.
S S E S S S S H
 
 |-------------------------------||
 |---------------------------o||
 |-------------------------------||
 |--------------------------------------||
 |-------------------------------------o||
 |--------------------------------------||

4.
$
N.C(E5)
S S E S S S S Q Q
 
 |---------------------------------||
 |------------------------------||
 |---------------------------------||
 |----------------------------------------||
 |----------------------------------------||
 |-----------------------------------17\--||

Theme I
~
E E E S S E S S E S S E Q E S S E E E
 
 |-----------------------|-------------------|
 |-----------------------|-------------------|
 |-----------------------|----7--7-----------|
 |-----------5-x-x-7-x-x-|-/9------9s7-5-----|
 |-----7-x-x-------------|---------------7-7-|
 |-0-0-------------------|-------------------|

~~~~~~~~ [(D5)] ~~~~~~[(E5)]
+E +E E S S E S S E S S E Q E +H E E E S S E S S E S S
 
 |-----------------------------|---------------|------------------------|
 |-----------------------------|---------------|------------------------|
 |-----------------------------|---------------|------------------------|
 |-------------0-0-5-x-x-7-x-x-|-7-------------|-----------5-x-x-7-x-x--|
 |-(7)-(7)\-/7-----------------|---5--5-(5)----|-----7-x-x--------------|
 |-----------------------------|---------------|-0-0--------------------|

~~~~~~~~~~~~~ [(A)] ~~~~~~
E Q S S S S E E E +E +E E S S E S S E S S Q +E E +H
 
 |---------------------|-----------------------------|-------------------|
 |---------------------|-----------------------------|-------------------|
 |----7--9p7-----------|-----------------------------|-------------------|
 |-/9--------9s7-5-----|-------------0-0-5-x-x-7-x-x-|-------------------|
 |-----------------7-7-|-(7)-(7)\-/7-----------------|-4b6r=(4)-4-(4)----|
 |---------------------|-----------------------------|-------------------|

[(E5)] ~~~~~~ ~~~~~~ ~~~~~~
E E E E +Q q S S E E E +Q E E E E E E +Q q
 
 |-------------------|--------------------|-------------------|
 |-----7b8-7-(7)--5--|-7p5----------------|-----7b8-7-(7)--5--|
 |-------------------|-----7-4-4-(4)------|-------------------|
 |-------------------|----------------5s7-|-------------------|
 |-------------------|--------------------|-7-7---------------|
 |-0-0---------------|--------------------|-------------------|

[(Bm7)] ~~~~~~ [(E5)] ~~~~~~ ~~~~~~
S S E E E +H E E E E +Q q S S E E E +E. S E E
 
 |------------------|-------------------|----------------------|
 |-7p5--------------|-----7b8-7-(7)--5--|-7p5------------------|
 |-----7------------|-------------------|-----7-4-4-(4)-4------|
 |-------7-7-(7)----|-------------------|-----------------5s7--|
 |------------------|-------------------|----------------------|
 |------------------|-0-0---------------|----------------------|

Theme IA
To Coda
~~~~~~ ~~~~~~[(E5)]
E E E E +Q q S S E E E +E E Q E E E S S E S S E S S
 
 |-------------------|----------------------|--------------------------|
 |-----7b8-7-(7)--5--|-7p5------------------|--------------------------|
 |-------------------|-----7----------------|------------12-x-x-14-x-x-|
 |-------------------|-------7-7-(7)-7------|-----14-x-x---------------|
 |-7-7---------------|----------------------|--------------------------|
 |-------------------|-----------------12\--|-0-0----------------------|

E Q E S S E E E
 
 |---------------------------|
 |-----15--15----------------|
 |-/16--------16s14-12-------|
 |---------------------14-14-|
 |---------------------------|
 |---------------------------|

[(D5)] ~~~~~~~~~~~~~~~
Q E S S E S S E S S E Q E +Q Q
 
 |------------------------------|---------------------|
 |------------------------------|---------------------|
 |----------12-12-12-x-x-14-x-x-|-14------------------|
 |-14\--/14---------------------|----12--12-(12)--12--|
 |------------------------------|---------------------|
 |------------------------------|---------------------|

[(E5)]E E E S S E S S E S S E Q S S S S E E E
 
 |--------------------------|------------------------------|
 |--------------------------|-----15--17p15----------------|
 |------------12-x-x-14-x-x-|-/16-----------16s14-12-------|
 |-----14-x-x---------------|------------------------14-14-|
 |--------------------------|------------------------------|
 |-0-0----------------------|------------------------------|

Q E S S E S S E S S
 
 |-----------------------------|
 |-----------------------------|
 |--------------12-x-x-14-x-x--|
 |-14\--/14-x-x----------------|
 |-----------------------------|
 |-----------------------------|

[(A)] [(E5)] ~~~~~~~ ~~~~~~~
E +Q E +Q E E E E E E +Q q S S E E E +H
 
 |----------------------------|-----14b15-14-(14)--12--|-14p12p10---------------|
 |-------------10-(10)--10----|------------------------|----------12-12-(12)----|
 |----------------------------|------------------------|------------------------|
 |-11b12r(11)--------------11-|------------------------|------------------------|
 |----------------------------|------------------------|------------------------|
 |----------------------------|-0-0--------------------|------------------------|

~~~~ ~~~~~~~ [(Bm7)] ~~~~~~~~~~~~[(E5)]~~~~~ ~~~~~~~
+Q E E +Q q S S E E E +H +Q E E +Q q
 
 |-------14b15-14-(14)--12--|-14p12p10---------------|-------14b15-14-(14)--12--|
 |-(12)---------------------|----------10-10-(10)----|-(10)---------------------|
 |--------------------------|------------------------|--------------------------|
 |--------------------------|------------------------|--------------------------|
 |--------------------------|------------------------|--------------------------|
 |--------------------------|------------------------|--------------------------|

~~~~~~~~~~~~~~~~~ ~~~~~~~
S S E E E +H +Q E E +Q q
 
 |-14p12p10---------------|-------14b15-14-(14)--12--|
 |----------12-12-(12)----|-(12)---------------------|
 |------------------------|--------------------------|
 |------------------------|--------------------------|
 |------------------------|--------------------------|
 |------------------------|--------------------------|

[(Bm7)] ~~~~~~~
S S E E E +Q Q
 
 |-14p12p10-------------------|
 |----------10-10-(10)--------|
 |----------------------------|
 |----------------------------|
 |----------------------19\---|
 |----------------------------|

Theme II
[Em7]E E E S S S S E E S S +E E E E E E E S S +S S E E E E E E S S
 
 |-----------------------|---------------------|------------------------|
 |-----8-----8-8---8---8-|-(8)---8---8---8---8-|-(8)-8---8---8---8---8--|
 |-----7-----7-7---7---7-|-(7)---7---7---7---7-|-(7)-7---7---7---7---7--|
 |-----------------------|---------------------|------------------------|
 |---7---7-7-----7---7---|-----7---7---7---7---|-------7---7---7---7----|
 |-0---------------------|---------------------|------------------------|

$$
+S S E S S E S S S S E E Q. E +E E Q Q. E +Q E S S
|---------------------------||--------------------|--------------------|
|-(8)-x-8---8---8-8-8-8-8---||--------------------|--------------------|
|-(7)-x-7---7---7-7-7-7-7-9-||-11----9-(9)---11\--|-4----4-(4)--4/-----|
|---------------------------||--9----9-(9)----9\--|-0----0-(0)-----0-0-|
|---------------------------||-------------7------|--------------------|
|---------------------------||--7-----------------|-3------------------|
N.C(D) A5 N.C. B5 Bsus4 B5
Q E E +E E E E Q E E +Q E E E. S E E +E E E E
|----------------------|-----------------------|------------------------|
|----------------------|-----------------------|------------------------|
|-14----12-(12)---11---|-9---------------------|-11--11---9-(9)---11----|
|-----0---------0----0-|-7--7-11b12-(11)--11s9-|--9-------9-(9)----9----|
|----------------------|-0---------------------|------------------------|
|----------------------|-----------------------|--7-----7-------7----7\-|
G N.C(D) A5 N.C.
Q. E +E E E E Q E E +E E E E Q E E E E E E
|------------------|-------------------|------------------|
|------------------|-------------------|------------------|
|-4----4-(4)-4-4---|-7----9-(9)---11s9-|-9----------------|
|-0----0-(0)-0-0-0-|----0-------0------|-7------9s11-11s9-|
|------------------|-------------------|-0--0-0-----------|
|-3----------------|-------------------|--------7s=9--9s7-|
B5 Bsus4 B5 G N.C(D)
Q E E +E E Q Q. E +E E E E Q E E +E E E E
|--------------------|-------------------|----------------------|
|--------------------|-------------------|----------------------|
|-11----9-(9)---11\--|-4----4-(4)---4/---|-14----12-(12)---11---|
|--9----9-(9)--------|-0----0-(0)-0----0-|-----0---------0----0-|
|--------------------|-------------------|----------------------|
|--7--7-------7------|-3-----------------|----------------------|
To Dbl. Coda
Q. E +E E E E Q E E +E E Q E Q E +E E E E
|---------------------|--------------------|------------------|
|---------------------|--------------------|------------------|
|-9----11-(11)---12---|-11----9-(9)-9-11\--|-4-4--4-(4)-4-4---|
|-7------------7----9-|--9----9-(9)-9--9\--|-0-0--0-(0)-0-0-0-|
|-0-------------------|--------------------|------------------|
|---------------------|--7--7----------7\--|-3----------------|
N.C(D) A5
\0.5___/
Q E E +E E E E Q. E A +E +E E S S
|-------------------|----------------------------|
|-------------------|----------------------------|
|-7----9-(9)---11---|-9----9-9-----(9)-(9)-9-x-x-|
|----0-------0----0-|-7----7-7-----(7)-(7)-7-x-x-|
|-------------------|-0--------------------------|
|-------------------|----------------------------|
E S S S S S S E S S e E
|-10-x-10---x-10h=12--12-12-12-12----|
|-10-x-10---x-10-(10)-10-10-10-10----|
|------------------------------------|
|------------------------------------|
|------------------------------------|
|------------------------------------|
E S S E E +E E E E E S S E E +E E E E
|-10-10-10-10-10-(10)-10---10-|-12-12-12-12-12-(12)-12-12---||
|-10-10-10-10-10-(10)-10---10-|-10-10-10-10-10-(10)-10-10---||
|-----------------------------|-----------------------------||
|-----------------------------|-----------------------------||
|-----------------------------|-----------------------------||
|-----------------------------|-----------------------------||
Main Theme Redux
N.C. (Em9)
S S E S S E S S S S Q
||--------------------------------------|
||o----------------------------------|
||--------------------------------------|
||------------------------------------------------|
||o-----------------------------------------------|
||------------------------------------------------|
1.,2.,3.
S S E S S S S H
|-------------------------------||
|---------------------------o||
|-------------------------------||
|--------------------------------------||
|-------------------------------------o||
|--------------------------------------||
Guitar Solo
4.
N.C.(G5)
\1/
S S E S S S S E E Q Q. E +Q E +E
|----------------------------------||---------------------|
|-------------------------------||-16------------------|
|----------------------------------||-15------------------|
|-----------------------------------------||-------0-(0)--0-(0)--|
|-----------------------------------------||---------------------|
|----------------------------------x-12\--||---------------------|
\1/ \1/ \1/ \1/
~~~ ~
+S +E. +E +E H H Q E A E
|----------------------------|------------------|
|----------------------------|------------------|
|----------------------------|-/10----12s=5-5s7-|
|-(0)--(0)--(0)--(0)---------|------------------|
|---------------------17\----|------------------|
|---------------------17\----|------------------|
~~~~~~~~~~~~~
|-3-| |-3-| |-3-|
+E Q E Q Q E S S S S S S +E +S S S S S +E S S
|----------------||---------------------------------------|
|----------------||---------------------------------------|
|-(7)-7--7-7--7--||---------3h4h6-(6)-(6)-4p3h4s8-(8)p6p4-|
|----------------||---3h4h6-------------------------------|
|----------------||---------------------------------------|
|----------------||---------------------------------------|
~~
|-3-| |-3-| |-3-|
S S S T T E S S Q. E Q E E E E E E E e S S
|-------------------------|-------------------------|
|-------------------------|-------------------------|
|-------------------------|-6b8-6p4-6p4-------------|
|-4h6---6p4---------------|-------------6p4---------|
|-----------6-6s9s4----/6-|-----------------6-4-4h6-|
|-------------------------|-------------------------|
PM~ ~ ~ ~ ~~~~~~
E S S E E Q Q E Q E Q E. S S S Q E Q Q
|------------------||-----------------|------------------|
|------------------||-----------------|----------8--10---|
|------------------||--------5--/7--7-|-9-9-9--9---------|
|-4-6p4-6-4-6--6/--||---7--7----------|------------------|
|------------------||-0---------------|------------------|
|------------------||-----------------|------------------|
~~
S S S S Q S S S S Q E +S S S S S S Q Q
|-8-8-8-8-10--12-12-12-12-15--|-17b19r(17)p15---------------------|
|-----------------------------|---------------17p15-17p15---------|
|-----------------------------|---------------------------17s=x/--|
|-----------------------------|-----------------------------------|
|-----------------------------|-----------------------------------|
|-----------------------------|-----------------------------------|
~~~~~~~
E Q E +Q S S S S
|---21b24--21-(21)--18----18-21p|
|----------------------21-------|
|-------------------------------|
|-------------------------------|
|-------------------------------|
|-------------------------------|
S S S S S S S S S E S +S S S S
|-18----18----------18----------------------------|
|----21----21-21p18----18------------------18-----|
|-------------------------21-20-21-(21)-20----21p=|
|-------------------------------------------------|
|-------------------------------------------------|
|-------------------------------------------------|
~~~~~
S S S S S S S S S S S S E E H Q Q
|-------------------------------------------|-----------------|
|----18-------18-------18-------18-------18-|-21b23-----------|
|-20----21p20----21p20----21p20----21p20----|-----------------|
|-------------------------------------------|-----------------|
|-------------------------------------------|-----------------|
|-------------------------------------------|----------xs=x\--|
D.S. al Coda
|--3---|
Q Q +E Q. Q Q Q H
|----------------|-----------0----||
|----------------|------0------||
|----------------|----------------||
|-----------9----|-------------||
|----7--(7)------|----------------||
|-0--------------|----------------||
Theme IIA
&
E E E E E E E S S +S S E E E E E E S S
|-------------------|-----------------------|
|-----8---8---8---8-|-(8)-8---8---8---8---8-|
|-----7---7---7---7-|-(7)-7---7---7---7---7-|
|-------------------|-----------------------|
|---7---7---7---7---|-------7---7---7---7---|
|-0-----------------|-----------------------|
D.S.S. al Dbl. Coda
+S S E E E S S E E S S +E E S S E E S S E E
|-------------------------|-----------------------||
|-(8)-8---8---8-8---8---8-|-(8)-8-8-8-8-8-8-8-8---||
|-(7)-7---7---7-7---7---7-|-(7)-7-7-7-7-7-7-7-7-9-||
|-------------------------|-----------------------||
|-------7---7-----7---7---|-----------------------||
|-------------------------|-----------------------||
&&
N.(D)
Q E E +E E E E E E E E E E Q
|------------------|-------------------|
|------------------|-------------------|
|------7-(7)-7-7-7-|-7s9-9-9-9s11-11\--|
|-0--0-0-(0)-0-0-0-|-0-------0---------|
|------------------|-------------------|
|------------------|-------------------|
Q. E +E Q S S E S S E S S +S S S S E S S
|----------------------|-17-x-17---17-17-(17)-17-17-17-17-17-17-|
|------10-(10)-10------|----------------------------------------|
|-9-----9--(9)--9------|-14-x-14---14-14-(14)-14-14-14-14-14-14-|
|-7-----7--(7)--7--0-0-|----------------------------------------|
|-0--------------------|----------------------------------------|
|----------------------|----------------------------------------|
S S S S S S E +E S S E E
|-17s19-19-19-19-19-19-(19)-19-19-19-19-|
|---------------------------------------|
|-14s16-16-16-16-16-16-(16)-16-16-16-16-|
|---------------------------------------|
|---------------------------------------|
|---------------------------------------|
S S S S E E +E E S S S S
|-19s21-21-21-21-21-(21)-21-21-21-21-21-|
|---------------------------------------|
|-16s18-18-18-18-18-(18)-18-18-18-18-18-|
|---------------------------------------|
|---------------------------------------|
|---------------------------------------|
E S S E S S S S S S S S S S
|-22-22-22-22-22-22-22-22-22-22-22-22-22-22-|
|-------------------------------------------|
|-19-19-19-19-19-19-19-19-19-19-19-19-19-19-|
|-------------------------------------------|
|-------------------------------------------|
|-------------------------------------------|
S S S S S S S S S S E Q
|-22-22-22-22-22-22-22-22-22-22-------------|
|-------------------------------------------|
|-19-19-19-19-19-19-19-19-19-19-------------|
|-------------------------------------------|
|-----------------------------------|
|-------------------------------------------|
Outro
E Q E Q E E +E Q E E E E E
|-------------------------|--------------0-------0----|
|-----------------|-()---------15h17------|
|---------------------------------|--------------------16-|
|---------------------------------|---------------------------|
|---------------------------------|---------------------------|
|---------------------------------|---------------------------|
|-0-0----0-0----0-0-|----0-0----0-0----0-|
|-------------------|--------------------|
|-----14-----12-----|-11-----12-----11---|
|-------------------|--------------------|
|-------------------|--------------------|
|-------------------|--------------------|
E E E E E E E E Q E E +Q Q
|-0---0-0---------|------0-(0)--0--|
|-----------------|----0--------0--|
|---9-----7s9-9s4-|-4--------------|
|-----------------|----------------|
|-----------------|----------------|
|-----------------|----------------|
N.C. (Em9)
S S E S S E S S S S Q
||--------------------------------------|
||o----------------------------------|
||--------------------------------------|
||------------------------------------------------|
||o-----------------------------------------------|
||------------------------------------------------|
~
S S E S S S S H 4x W
|-------------------------------||------*|
|---------------------------o||------*|
|-------------------------------||-2----*|
|--------------------------------------||-2----*|
|-------------------------------------o||-2----*|
|--------------------------------------||-0----*|
Duration Legend
---------------
W - whole; H - half; Q - quarter; E - 8th; S - 16th; T - 32nd; X - 64th; a - acciaccatura
+ - note tied to previous; . - note dotted; .. - note double dotted
Uncapitalized letters represent notes that are staccato (1/2 duration)
Irregular groupings are notated above the duration line
Duration letters will always appear directly above the note/fret number it represents the
duration for. Duration letters with no fret number below them represent rests. Multi-
bar rests are notated in the form Wxn, where n is the number of bars to rest for. Low
melody durations appear below the staff
Tablature Legend
----------------
h - hammer-on
p - pull-off
b - bend
pb - pre-bend
r - bend release (if no number after the r, then release immediately)
/\ - slide into or out of (from/to "nowhere")
s - legato slide
S - shift slide
- natural harmonic
[n] - artificial harmonic
n(n) - tapped harmonic
~ - vibrato
tr - trill
T - tap
TP - trem. picking
PM - palm muting
\n/ - tremolo bar dip; n = amount to dip
\n - tremolo bar down
n/ - tremolo bar up
/n\ - tremolo bar inverted dip
= - hold bend; also acts as connecting device for hammers/pulls
- volume swell (louder/softer)
x - on rhythm slash represents muted slash
o - on rhythm slash represents single note slash
Misc Legend
-----------
| - bar
|| - double bar
||o - repeat start
o|| - repeat end
*| - double bar (ending)
: - bar (freetime)
$ - Segno
& - Coda
Tempo markers - = BPM(8/16=s8/s16), where s8 = swing 8ths, s16 = swing 16ths

Important: The song above is NOT stored on the Chordie server. The original song is hosted at www.guitartabs.cc. Chordie works as a search engine and provides on-the-fly formatting. Chordie does not index songs against artists'/composers' will. To remove this song please click here.

Text color:
Chord color:
Chord grids: 
Font size:    
Page size: 

Em7
Rate #1 of 4 versions

Login - add to songbook

SHARE PAGE  




You need to log in to post comments