Guitar Tabs, Chords and Lyrics
Major upgrade!! After one year development the new version of Chordie is now online! Please give feedback.


Like a Sad Song  John Denver

I've only posted the chords and the intro tab for now. if anyone can
transcribe the rest of the tab that would be great :D
Chords Used:
[C] [Cm] [G] [Dsus2] [D] [D/F#] [Em] [G7] [Am]  
 
 e|-0-----0-----3-----0-----2-----2-----0-----1-----0---|
 B|-1-----1-----0-----3-----3-----3-----0-----0-----1---|
 G|-0-----0-----0-----2-----2-----2-----0-----0-----2---|
 D|-2-----1-----0-----0-----0-----0-----2-----0-----2---|
 A|-3-----3-----2-----x-----x-----0-----2-----2-----0---|
 E|-x-----x-----3-----x-----x-----2-----0-----3-----x---|

Intro riff/Chorus Riff
[C] [Cm] [G] [C] [Cm] [Dsus2] [D]  
 
 e|---------------0---------3---------------------0---------0---2-----|
 B|-------1-----1---------0---0-----------1-----1-------3-----3-------|
 G|-----0-----0---------0-------0-------0-----0-------2---2-----------|
 D|---2-----1---------0-----------0---2-----1-------0-----------------|
 A|-3-------------------------------3---------------------------------|
 E|-----------------3-------------------------------------------------|

[G]Usually in the [D/F#]morning, I'm [Em]filled with sweet [G7]belonging
And [C]everything is [Cm]beautiful to [G]see
[G]Even when it's [D/F#]raining, the [Em]sound of heaven [G7]singing
Is [C]simply joyful [Cm]music to [G]me.
[C]Sometimes I [Cm]feel like a [G]sad song
Like [C]I'm all [Cm]alone, wit[Dsus2]hout you.[D]
So [G]many diff'rent [D/F#]places, a [Em]million smiling [G7]faces
[C]Life is so [Cm]incredible to [G]me
Es[G]pecially to be [D/F#]near you, and[Em] how it is to[G7] touch you
Oh [C]paradise was [Cm]made for you and [G]me.
[C]Sometimes I [Cm]feel like a [G]sad song
Like [C]I'm all [Cm]alone, wit[Dsus2]hout you.[D]
[C]I know that [Cm]life goes on just [G]perfectly[Em]
And [Am]ev'rything is [D]just the way that it should [G]be
[C]Still there are [Cm]times when my [G]heart feels like [Em]breaking
And [Am]anywhere is where I'd rather [Dsus2]be.[D]
[G]Oh and in the [D/F#]night time, I [Em]know that it's the [G7]right time
To [C]hold you close and [Cm]say, I love you[G] so
To [G]have someone to [D/F#]share with, and [Em]someone I can [G7]care with
And [C]that is why I [Cm]wanted you to [G]know
[C]Sometimes I [Cm]feel like a [G]sad song
Like [C]I'm all [Cm]alone, wit[Dsus2]hout you.[D]
Instrumental: play same chords as the verse's
[C]Sometimes I [Cm]feel like a [G]sad song
Like [C]I'm all [Cm]alone, with[Dsus2]out you, with[C]out you. [Cm] [G] [C]

Important: The song above is NOT stored on the Chordie server. The original song is hosted at www.guitartabs.cc. Chordie works as a search engine and provides on-the-fly formatting. Chordie does not index songs against artists'/composers' will. To remove this song please click here.

Text color:
Chord color:
Chord grids: 
Font size:    
Page size: 

Am C Cm D D/F# Dsus2 Em G G7
Rate #0 of 5 versions

Login - add to songbook

SHARE PAGE  



You need to log in to post comments