Guitar Tabs, Chords and Lyrics
Major upgrade!! After one year development the new version of Chordie is now online! Please give feedback.


River Is Waiting   John Fogerty

 
 -------------------------------------------------------------------------------

 


 River is Waiting- John Fogerty


 

 
 -------------------------------------------------------------------------------

 


 Tabbed by: mopar68


 As played on: John Fogerty Revival Album


 


 First tab- please comment


 When you see two notes together, it means play them together. Kinda like power chords.


 


 

 
 ----INTRO----
 e|--4-4-~3-----------4-4-~3-----------4-4-~3-----------4-4-~3----------|
 B|--4-4-~4--3-3-~4---4-4-~4--3-3-~4---4-4-~4--3-3-~4---4-4-~4--3-3-~4--|
 G|----------3-3-~3-----------3-3-~3-----------3-3-~3-----------3-3-~3--|
 D|---------------------------------------------------------------------|
 A|---------------------------------------------------------------------|
 E|---------------------------------------------------------------------|
 -- -- -- -- -- --

 


 


 [#G] [#D] [#A] [#D] [#G] [#D] [#A] [#D]  

 
 e|--------------------------------------4-4-~3-------------------------------|
 B|-----------------------------------4--4-4-~4--3-3-~4-----------------------|
 G|-----------------------------------3----------3-3-~3-----------------------|
 D|---------------------------------------------------------------------------|
 A|---------------------------------------------------------------------------|
 E|---------------------------------------------------------------------------|

 


 The river is waiting, come rise up


 


 [#G] [#D] [#A] [#D] [#G] [#D] [#A] [#D]  

 
 e|----------------------------------------4-4-~3-----------------------------|
 B|-------------------------------------4--4-4-~4--3-3-~4---------------------|
 G|-------------------------------------3----------3-3-~3---------------------|
 D|---------------------------------------------------------------------------|
 A|---------------------------------------------------------------------------|
 E|---------------------------------------------------------------------------|

 


 A new day is dawning, come rise up


 


 [#G] [#D] [#A] [#D] [#G] [#D] [#A] [#D]  

 
 e|------------------------------------------------4-4-~3---------------------|
 B|---------------------------------------------4--4-4-~4--3-3-~4-------------|
 G|---------------------------------------------3----------3-3-~3-------------|
 D|---------------------------------------------------------------------------|
 A|---------------------------------------------------------------------------|
 E|---------------------------------------------------------------------------|

 


 We'll be sailin' at first light, come gather


 


 [#G] [#D] [#A] [#D] [#G] [#D] [#A] [#D]  

 
 e|------------------------------------------------4-4-~3---------------------|
 B|---------------------------------------------4--4-4-~4--3-3-~4-------------|
 G|---------------------------------------------3----------3-3-~3-------------|
 D|---------------------------------------------------------------------------|
 A|---------------------------------------------------------------------------|
 E|---------------------------------------------------------------------------|

 


 Set our course for the crossing, together


 


 

 
 ---------CHORUS: *notes are palm muted*----------

 


 


 [#G] [#D] [#A] [#D] [#G] [#D] [#A] [#D]  

 
 e|--4------3------x-------------------x---4------3------x-------------------x|
 B|--4------4------x---3-3------4------x---4------4------x---3-3------4------x|
 G|--------------------3-3------3----------------------------3-3------3-------|
 D|---------------------------------------------------------------------------|
 A|---------------------------------------------------------------------------|
 E|---------------------------------------------------------------------------|

 


 Backing Vocals:


 Sail on Sail on The river is waiting Sail on


 Fogerty:


 Whoa My, my, my, my, my, my


 


 [#G] [#D] [#A] [#D] [#G] [#D] [#A] [#D]  

 
 e|--4------3------x-------------------x---4------3------x-------------------x|
 B|--4------4------x---3-3------4------x---4------4------x---3-3------4------x|
 G|--------------------3-3------3----------------------------3-3------3-------|
 D|---------------------------------------------------------------------------|
 A|---------------------------------------------------------------------------|
 E|---------------------------------------------------------------------------|

 


 Backing Vocals:


 Sail on Sail on The river is waiting Sail on


 Fogerty:


 Whoa My, my, my, my, my, my


 


 

 
 --SOLO---------

 


 


 [#G] [#D] [#A] [#D] [#G] [#D] [#A] [#D]  

 
 e|---------------------------------------4-4-~3------------------------------|
 B|----8-11--11--11------------8----------4-4-~4--3-3-~4----------------------|
 G|--8--------------~8--b10--8--------------------3-3-~3----------------------|
 D|-------------------------------~8------------------------------------------|
 A|---------------------------------------------------------------------------|
 E|---------------------------------------------------------------------------|

 


 


 [#G] [#D] [#A] [#D] [#G] [#D] [#A] [#D]  

 
 e|------------------8--------------------4-4-~3------------------------------|
 B|----8-11--11--11--------------8--------4-4-~4--3-3-~4----------------------|
 G|--8----------------pbr10--8-10--~8-------------3-3-~3----------------------|
 D|---------------------------------------------------------------------------|
 A|---------------------------------------------------------------------------|
 E|---------------------------------------------------------------------------|

 


 ( Tab from: http://www.guitartabs.cc/tabs/j/john_fogerty/river_is_waiting_tab.html )


 [#G] [#D] [#A] [#D] [#G] [#D] [#A] [#D]  

 
 e|--------------------------------------4-4-~3-------------------------------|
 B|--------------------11----------------4-4-~4--3-3-~4-----------------------|
 G|-prb10--8---8-----8-----b10--8----------------3-3-~3-----------------------|
 D|---------h10---10---------------~8-----------------------------------------|
 A|---------------------------------------------------------------------------|
 E|---------------------------------------------------------------------------|

 


 


 [#G] [#D] [#A] [#D] [#G] [#D] [#A] [#D]  

 
 e|--------------------------------------4-4-~3-------------------------------|
 B|----8------------8--9-8---------------4-4-~4--3-3-~4-----------------------|
 G|--8----8----10----------10--8-----------------3-3-~3-----------------------|
 D|--------h10--------------------~8------------------------------------------|
 A|---------------------------------------------------------------------------|
 E|---------------------------------------------------------------------------|
 ----- -------- - - - -

 


 


 [#G] [#D] [#A] [#D] [#G] [#D] [#A] [#D]  

 
 e|--------------------------------------4-4-~3-------------------------------|
 B|-----------------------------------4--4-4-~4--3-3-~4-----------------------|
 G|-----------------------------------3----------3-3-~3-----------------------|
 D|---------------------------------------------------------------------------|
 A|---------------------------------------------------------------------------|
 E|---------------------------------------------------------------------------|

 


 The river is waiting, I'm ready


 


 [#G] [#D] [#A] [#D] [#G] [#D] [#A] [#D]  

 
 e|--------------------------------------4-4-~3-------------------------------|
 B|-----------------------------------4--4-4-~4--3-3-~4-----------------------|
 G|-----------------------------------3----------3-3-~3-----------------------|
 D|---------------------------------------------------------------------------|
 A|---------------------------------------------------------------------------|
 E|---------------------------------------------------------------------------|

 


 To slip from this island, I'm ready


 


 [#G] [#D] [#A] [#D] [#G] [#D] [#A] [#D]  

 
 e|------------------------------------------------4-4-~3---------------------|
 B|---------------------------------------------4--4-4-~4--3-3-~4-------------|
 G|---------------------------------------------3----------3-3-~3-------------|
 D|---------------------------------------------------------------------------|
 A|---------------------------------------------------------------------------|
 E|---------------------------------------------------------------------------|

 


 Gonna leave all my sorrow, behind me


 


 [#G] [#D] [#A] [#D] [#G] [#D] [#A] [#D]  

 
 e|------------------------------------------------4-4-~3---------------------|
 B|---------------------------------------------4--4-4-~4--3-3-~4-------------|
 G|---------------------------------------------3----------3-3-~3-------------|
 D|---------------------------------------------------------------------------|
 A|---------------------------------------------------------------------------|
 E|---------------------------------------------------------------------------|

 


 Lift my face to the new day, that's rising


 


 

 
 ----CHORUS REPEATED-----

 


 


 [#G] [#D] [#A] [#D] [#G] [#D] [#A] [#D]  

 
 e|--4------3------x-------------------x---4------3------x-------------------x|
 B|--4------4------x---3-3------4------x---4------4------x---3-3------4------x|
 G|--------------------3-3------3----------------------------3-3------3-------|
 D|---------------------------------------------------------------------------|
 A|---------------------------------------------------------------------------|
 E|---------------------------------------------------------------------------|

 


 Backing Vocals:


 Sail on Sail on The river is waiting Sail on


 Fogerty:


 Whoa My, my, my, my, my, my


 


 [#G] [#D] [#A] [#D] [#G] [#D] [#A] [#D]  

 
 e|--4------3------x-------------------x---4------3------x-------------------x|
 B|--4------4------x---3-3------4------x---4------4------x---3-3------4------x|
 G|--------------------3-3------3----------------------------3-3------3-------|
 D|---------------------------------------------------------------------------|
 A|---------------------------------------------------------------------------|
 E|---------------------------------------------------------------------------|

 


 Backing Vocals:


 Sail on Sail on The river is waiting Sail on


 Fogerty:


 Whoa My, my, my, my, my, my


 


 

 
 ------OUTRO----- *Let last chord ring out*

 


 


 [#G] [#D] [#A] [#D] [#G] [#D] [#A] [#D] [#G] [#D] [#A] [#D] [#G] [#D] [#A] [#D]  

 
 e|--4-4-~3-----------4-4-~3-----------4-4-~3-----------4-4-~3----------|
 B|--4-4-~4--3-3-~4---4-4-~4--3-3-~4---4-4-~4--3-3-~4---4-4-~4--3-3-~4--|
 G|----------3-3-~3-----------3-3-~3-----------3-3-~3-----------3-3-~3--|
 D|---------------------------------------------------------------------|
 A|---------------------------------------------------------------------|
 E|---------------------------------------------------------------------|


Important: The song above is NOT stored on the Chordie server. The original song is hosted at www.guitartabs.cc. Chordie works as a search engine and provides on-the-fly formatting. Chordie does not index songs against artists'/composers' will. To remove this song please click here.

This song is displayed as text-only. Transposing and tuning is only available for chordpro-songs.
Rate #1 of 7 versions

Login - add to songbook

SHARE PAGE  




You need to log in to post comments