Guitar Tabs, Chords and Lyrics
Major upgrade!! After one year development the new version of Chordie is now online! Please give feedback.


Rock and Roll Girls  John Fogerty

This is how I play it
Part 1 - basics
[E] [E] [E] [E] [E] [E] [E] [E] [E] [E] [E] [E] [E] [E] [E] [E] [E] [E] [E] [E] [E] [E] [E] [E] [E] [E] [E] [E] [E] [E] [E] [E]  
 
 |-------------------------------------------------------------------|
 |-------------------------------------------------------------------|
 |-----------------0-3-3-3-0-5-5-5-----------------0-3-3-3-0-5-5-5---|
 |-0-3-3-3-3-3-3-3-----------------0-3-3-3-3-3-3-3-------------------|

Part 2 - nice slide to change into chorus
( Tab from: http://www.guitartabs.cc/tabs/j/john_fogerty/rock_and_roll_girls_btab_ver_2.html )
[E] [E] [E] [E] [E] [E] [E] [E] [E] [E] [E] [E] [E] [E] [E] [E] [E] [E] [E] [E] [E] [E] [E] [E] [E] [E] [E] [E] [E] [E] [E] [E] [E]  
 
 |---------------------------------------------------------/4-2--------|
 |--------------------------------------------------------------5-2----|
 |-----------------0-3-3-3-0-5-5-5-----------------0-3-3-3----------5--|
 |-0-3-3-3-3-3-3-3-----------------0-3-3-3-3-3-3-3---------------------|

Part 3 played through chorus and instrumental
Q E E Q E Q Q E Q E E Q E E Q E Q Q E Q E E Q E E Q E Q Q E Q Q
 
 |--------------------------------------------------------------------|
 |-5-5-4-2-------------4-5-5-4-2-------------4-5-5-4-2----------------|
 |---------5-3-3---5-5-----------5-3-3---5-5-----------5-3-3---5-5----|
 |---------------5---------------------5---------------------5--------|

Part 4 - play at the end of part 3 to get you back into part 1
[E] [E] [E] [E] [E] [E] [E] [E] [E] [E] [E] [E] [E] [E] [E] [E]  
 
 |------------------------------------|
 |------------------------------------|
 |------------------------------------|
 |-3-3-3-3-3-3-3-3-3-3-3-3-3-3-3-0----|

Listen to the song for structure
Dancingdog :)

Important: The song above is NOT stored on the Chordie server. The original song is hosted at www.guitartabs.cc. Chordie works as a search engine and provides on-the-fly formatting. Chordie does not index songs against artists'/composers' will. To remove this song please click here.

Text color:
Chord color:
Chord grids: 
Font size:    
Page size: 

E
Rate #1 of 4 versions

Login - add to songbook

SHARE PAGE  




You need to log in to post comments