Guitar Tabs, Chords and Lyrics
Major upgrade!! After one year development the new version of Chordie is now online! Please give feedback.


Big Takeover  John Frusciante

Tabbed by Colin S.
Email me if want more: mr.sully@sbcglobal.net
|SOLO GUITAR|
INTRO.
 
 E---------------------------------------------------------------------------------------16---|
 B---16---19---16------------------------------------------------------15---------------------|
 G---------------------18---16---18p16~13---13---13---13---13-------13---13-------------------|
 D--------------------------------------------------------------------------------------------|
 A--------------------------------------------------------------------------------------------|
 E--------------------------------------------------------------------------------------------|
 E---14---------------------------------------------------------------------------------------|
 B-------16-----------------------------------------------------------------------------------|
 G------------16---12---13---16---16---15---13------------------------------------------------|
 D--------------------------------------------------------------------------------------------|
 A--------------------------------------------------------------------------------------------|
 E--------------------------------------------------------------------------------------------|

VERSE
 
 E-------16----------------16---------------------16------------------------------------------|
 B------------16-----------------16----------------------16-----------------------------------|
 G---13-------------13---------------------13---------------------16-----15----13-------------|
 D--------------------------------------------------------------------------------------------|
 A--------------------------------------------------------------------------------------------|
 E--------------------------------------------------------------------------------------------|

Chorus
 
 E--------------------------------------------------------------------------------------------|
 B---12---10---12---10---12---10---10~~17-17-17-17-17-17---19-19-19-19-19-19------------------|
 G--------------------------------------------------------------------------------------------|
 D--------------------------------------------------------------------------------------------|
 A--------------------------------------------------------------------------------------------|
 E--------------------------------------------------------------------------------------------|
 E-------16--------------16-------------------------------------------------------------------|
 B-----------16----------------16---14---16---------------------------------------------------|
 G---13-----------13----------------------------16---15---13----------------------------------|
 D--------------------------------------------------------------------------------------------|
 A--------------------------------------------------------------------------------------------|
 E--------------------------------------------------------------------------------------------|

INSTRUMENTAL:
 
 E---19---18---16---16------------------------------------------------------------------------|
 B--------------------------19---16--------16-------------------------------------------------|
 G-------------------------------------16------------------16---15---13-----------------------|
 D--------------------------------------------------------------------------------------------|
 A--------------------------------------------------------------------------------------------|
 E--------------------------------------------------------------------------------------------|

_______________________________________________________________________________________________
Intro:
Play this chord
for a while
 
 |-4----------------------x-----x----------------------------|
 |-4----------------------x-----x----------------------------|
 |-4----------6--4--------x-----x----------------------------|
 |-6---------------6------4-----5----------------------------|
 |-6--------=-------------4-----5----------------------------|
 |-4-------=--------------2-----3----------------------------|

Play this
for a while
 
 |-4----7--6-------|
 |-4----7--6-------|
 |-4----8--6-------|
 |-6----9--8-------|
 |-6----9--8-------|
 |-4----7--6-------|

[G#m]No one dared to show for that shower
[B] When nobody t[A#m]urned out to be clean
[G#m]Was not even touched by the water
[B] Just another [A#m]Nazi scheme, yeah[G#m]
The big take[B]over[A#m]
(Breakdown)
[E] [D] [G#m]  
 
 e|-----------------------------------------------------5-5-5-5-5------|--------------------|
 B|-----------------------------------------------------7-7-7-7-7------|--------------------|
 G|----------------------------------9~---9-9-9-9-9-----7-7-7-7-7------|--13-13-13-13-------|
 D|------9--7-----9--7---9--7-7------9~---9-9-9-9-9-----7-7-7-7-7------|--13-13-13-13-------|
 A|------9--7-----9--7---9--7-7------7~---7-7-7-7-7-----5-5-5-5-5-(2x)\|--11-11-11-11-------|
 E|------7--5-----7--5---7--5-5----------------------------------------|--------------------|

Play this
for a while
 
 |-4----7--6-------|
 |-4----7--6-------|
 |-4----8--6-------|
 |-6----9--8-------|
 |-6----9--8-------|
 |-4----7--6-------|

[G#m]All throughout this so called nation
[B] Prepare yourself[A#m] for the final quest
[G#m]The world is doomed with it's own integration
[B] Just another[A#m] Nazi test, yeah[G#m]
The big [B]takeover[A#m]
(Breakdown)
 
 e|-----------------------------------------------------5-5-5-5-5------|--------------------|
 B|-----------------------------------------------------7-7-7-7-7------|--------------------|
 G|----------------------------------9~---9-9-9-9-9-----7-7-7-7-7------|--13-13-13-13-------|
 D|------9--7-----9--7---9--7-7------9~---9-9-9-9-9-----7-7-7-7-7------|--13-13-13-13-------|
 A|------9--7-----9--7---9--7-7------7~---7-7-7-7-7-----5-5-5-5-5-(2x)\|--11-11-11-11-------|
 E|------7--5-----7--5---7--5-5----------------------------------------|--------------------|

Play this
for a while
 
 |-4----7--6-------|
 |-4----7--6-------|
 |-4----8--6-------|
 |-6----9--8-------|
 |-6----9--8-------|
 |-4----7--6-------|

[G#m]So believe me when I say
[B] There's no ho[A#m]pe for the usa
[G#m]The world is doomed with it's own integration
[B] Just another [A#m]nazi test yeah[G#m]
The big take[B]over[A#m]
[G#m] 

Important: The song above is NOT stored on the Chordie server. The original song is hosted at www.guitartabs.cc. Chordie works as a search engine and provides on-the-fly formatting. Chordie does not index songs against artists'/composers' will. To remove this song please click here.

Text color:
Chord color:
Chord grids: 
Font size:    
Page size: 

A#m B D E G#m
Rate #1 of 2 versions

Jango Player

Login - add to songbook

SHARE PAGE  




You need to log in to post comments