Guitar Tabs, Chords and Lyrics
Server problems seems to be fixed. Chordie has been experiencing problems with songs disappearing. These issues now seems to be fixed, but still verifying the fix. If you find anything strange, please email admin@chordie.com.


Curtains  John Frusciante

 
 ----------------------------------------------------------------------------

Curtains - John Frusciante
 
 ----------------------------------------------------------------------------

Tabbed by:frusciante_5
Email:funky_monks_12@hotmail.com
 
 ---------------------------------------------------------------------------

All you really need for most of this album is an acoustic guitar
 
 ----------------------------------------------------------------------------

The Past Recedes
 
 ----------------------------------------------------------------------------

chords...G,D,Am,Em,B, C
[G] [D] [Am] [Em]  
 
 e|------3-------2---2-------0--------0--0---0--0------0--0-----------------|
 B|------0-------3---3--3----1------ 1--1---1--1------0--0-----------------|
 G|---------0----2---2--2----2-- --- 2--2---2--2------0--0-----------------|
 D|--0------0----0---0--0----2------- 2--2---2--2------2--2-----------------|
 A|--2------2------------------------------------------2--2-----------------|
 E|--3----------------------------------------------------------------------|

(This is the basic strumming pattern through the verses)
[G]And then the pa[D]st recedes[Am] [Em]
[G]and I won't be [D]involved[Am] [Em]
[G]The effort to b[D]e free[Am] [Em]
[G]Seems pointless[D] from abov[Am]e
[G]You're looking [D]down at me[Am] [Em]
[G]I'd rather stay[D] below[Am] [Em]
[G]Than have you s[D]taring up [Am]at me[Em]
[G]It is nowhere I[D] want to g[Am]o[B]
[C]Ay, this business of how lon[D]g we try to stay alive
[Em]Why to be here you first [D]got to die
[C]so I gave it a try
And w[Am]hat do you know
[Em]Time was so long ago[B]
[G]And things come[D] back you [Am]see[Em]
[G]To where they d[D]on't belon[Am]g[Em]
[G]and every drop [D]of sea is the whol[Am]e ocean[B]
[C]I lied to the gre[D]atest thieves
[Em]about anything and [D]everything
[C]I'm a figure of for[D]gotten speech I'm out of reach
[Am]I can't play it safe
[Em]But I'm might just in case[B]
SOLO (for the rhythm guitar use same chord progresions as intro and verses)
 
 e|---10---10p8-----8h10p8--------------------------------------------------|
 B|-------------12--------10---8--7--8---8/12---10/8---7---8--8---7----5---3|
 G|-------------------------------------------------------------------------|
 D|-------------------------------------------------------------------------|
 A|-------------------------------------------------------------------------|
 E|-------------------------------------------------------------------------|
 e|-------------------------------------------------------------------------|
 B|--3h5p3---0---0------0---------------------------------------------------|
 G|------------------2-----2---2h4p2----------------------------------------|
 D|-----------------------------------4--5--5--4--2------2---4--------------|
 A|---------------------------------------------------5---------------------|
 E|-------------------------------------------------------------------------|
 e|------------------------3----5/7----5---3-----10-10----13^----15^--------|
 B|-------------3--3h5p3----------------------------------------------------|
 G|------x------------------------------------------------------------------|
 D|---5-----5---------------------------------------------------------------|
 A|-------------------------------------------------------------------------|
 E|-------------------------------------------------------------------------|
 e|---12---12/13--10-------|
 B|------------------------|
 G|------------------------|
 D|------------------------|
 A|------------------------|
 E|------------------------|

[C]I'm disguised as a reach[D]ing hand
[Em]I'm a working man
[C]I don't understand why cl[D]ock out
[Em]Comes so slow ev[D]ery time
[C]That's one line il s[D]tay right beh[Am]ind
(Outro is the same chords as intro and verses, should end on a G)
 
 --------------------------------------------------------------------------

Lever Pulled
 
 --------------------------------------------------------------------------

This is a nice song with simple chords (Ab, Db, Eb)
[Ab]You're the feel[Db]ing of hurting
[Ab]More is what
I'm asking f[Db]or
[Ab]Little lies cross overboard
Wait for the crying
[Ab]Love to aim at[Db] besides
[Ab]Lever pulled
[Db]Go where you are l[Eb]ittle pond
[Ab]Never be seen by you[Db]r saw
[Db]We'll work it[Eb] out[Ab]
(Here the synth come in, play the Ab and arpeggiate the Db and Eb like this)
[Ab] [Db] [Eb]  
 
 e|----4---------------------------------|
 B|----4--------------6------------8-----|
 G|----5------------6------------8-------|
 D|----6----------6------------8---------|
 A|----6--------4------------6-----------|
 E|----4---------------------------------|

[Ab]Now the feel[Db]ings are right[Eb] where you saw[Ab]
Fo[Db]rever is r[Eb]ight where we wer[Ab]e
[Db]Never be cle[Eb]an
[Ab]Lever pulled
[Db]Be where you [Eb]are[Ab]
(repeat arpeggiated chords at the end, end on Ab)
 
 ---------------------------------------------------------------------------

Anne
 
 --------------------------------------------------------------------------

This has some unique chord (a,Bb,G,D,Dmin,Gmin,Emin,C,F,Cmin)
[a]Anne you can't h[G]ide
you [Bb]know we'll [D]find you
It's a [a]matter where pr[G]ide flies[Bb] out the [D]window
[Dmin]I never got the [Bb]weight off the [a]ground
[Dmin]I just fo[Bb]rgot what's up and [a]what's down
[Gmin]How many g[Emin]et the way I [C]feel now
[Gmin]There's no re[Emin]gret
There's just the[C] sense that
[Dmin]Nothing is go[Bb]ing my [a]way
[Dmin]There's so much that [Bb]happened [a]today
[(Bums)]  
 
 e|------------------------------------------------------------------------|
 B|-------- 3--------3--------------4--------------------------------------|
 G|--------3-----3--2------2---0---3---------------------------------------|
 D|------------------------------------------------------------------------|
 A|------------------------------------------------------------------------|
 E|------------------------------------------------------------------------|
 e|--------------------------------------------------------------------------|
 B|------3---------3---------------------------------------------------------|
 G|-----3-----3--2-----2--0---2---3--2---------------------------------------|
 D|-----------------------------------------3---1--------4-------------------|
 A|--------------------------------------------------------------------------|
 E|---------------------------------------------------------------------------|

((When the next lyrics come in, repeat the humming part^^^))
The gods of the city have called my name
It means more to them than it means to me somehow
I left my body
I left my fate
But is so hard to keep away now
Nothing is final because..
(here the acoustic guitar plays rhythm again)
[Gmin]it seems[F] all t[Cmin]he while[Gmin]
(There wasn't anything for me )
[Gmin]I always [F]faked my[Cmin] smile[Gmin]
(There's so many careless angels responsible for me)
[F]They give me disease
[Gmin]They give me a p[Cmin]ain in my ne[Gmin]ck to feed o[F]ff me
[Gmin]saying pay us th[Cmin]e cost and w[Gmin]e'll be gone[C]
[Gmin]they shut my eye[Cmin]s and i [Gmin]can't see [F]now
((This is the most explosive part of the album but unfortuntly i cant tab the twin solos
to well, sorry about that, these are chords to play over it however))
(Gmin, Cmin,Gmin Cmin, Gmin, C Gmin, F) Play them in that order, listen to the record
and ul figure out the strumming pattern)
[Gmin]These are the [Cmin]times I was scar[Gmin]ed of
[Cmin]These are the [Gmin]fates I [C]pushed out of the way
[Gmin]Now they come [Cmin]back here and h[Gmin]aunt me
[F]It's plain to see who the winner and loser will be
^(Continue those chord progressions throughout the outro solos, end on Gmin)
 
 ----------------------------------------------------------------------------

The Real
 
 ----------------------------------------------------------------------------

Not entirely sure about this one the chords are hard to make out in places but
this is the best i could do i think alot of it is correct
I [Bmin]don't know t[D]he real from[Bmin] what I thoug[a]ht I saw
[Bmin]I can't rememb[D]er where I [Bmin]went
[a]Where I was
At this points the chords break down slightly i think it goes something like this
[a] [Bmin] [D] [a] [E]  
 
 e|------------------------------------2-----------------------------------|
 B|---------2-------------3------3--3-3------------2-------------0---------|
 G|--2--2--2-------4--4--4-------2--2-2------------------------------------|
 D|--2--2--2-------4--4--4-----------------------2-----------2-------------|
 A|---------------------------------------------0----------2---------------|
 E|------------------------------------------------------------------------|

^use this chord sequence when the lyrics come in, their are some variations which im
not sure about but i know only these chords are used)
I'm gonna move toward a point in time
Where where you are is a state of mind
And anytime I can read your thoughts
Some of them yours and some of them I thought up
(chord sequence changes here)
[a]There's no goo[Bmin]d reason for a [a]heartbr[D]eak
[a]Nothing's repe[Bmin]ating every [a]Monday[D]
[a]It's no good sa[Bmin]ying you'll always [a]be min[D]e
[a]These jokes lif[Bmin]e's playing it makes me [a]so tire[D]d
[a]It's already to[Bmin] much to al[D]ways see[a]n you off
[a]The sense that [Bmin]hours go bac[D]k is en[a]ough
(on this next bit go back to the chord progressions in the first verse)
[a]I like to fa[Bmin]de when I [D]write th[a]is li[D]ne
[a]There's ever[Bmin]y reason t[D]o paint [a]a decl[E]ine
[a]And every[Bmin] mile I wa[D]lk is [a]five[E]
[a]I'll get [Bmin]where I'm g[D]oing in t[a]he next [E]life
[a]And all the [Bmin]while there's a [a]false [D]face
[a]This every k[Bmin]illing is left [a]untraced[D]
[a]This kind of[Bmin] falling saved [a]my son[D]
[a]This constan[Bmin]t longing for w[a]hat's go[D]ne
(I think the outro of the song goes back to the original chord progression in th
verses, end on a Bm)
(sorry if this isnt very good its the best i could do, im pretty sure these are
all the chords u need)
 
 ----------------------------------------------------------------------------

a Name
 
 ----------------------------------------------------------------------------

This is one of the easiest on the album
[B]These don't [a]have a name[Abmin]
I've been a[B] fool to l[a]et it out that wa[Abmin]y
[Cmin]And it'll keep on coming [a]back
[C#min]A fool ge[A]ts laughe[Abmin]d at
and I'l[C#min]l go on [B]and o[a]n and o[B]n
[C#min]Letting it out w[B]hen the [a]feelings [B]strong
[Cmin]I wonder w[B]ho in the [a]single [B]thing
[C#min]Made this [B]night and [a]this ug[B]ly dreams
[B](ah) (a[a]h) (ah)[Abmin]
These all pass away
[B]It is clear that one [a]can see through a day[Abmin]
[C#min]And i may have met my [a]match
[C#min]Completel[A]y unat[Abmin]tached
[C#min]with no o[B]ne no [a]one no [B]one
[C#min]on whom t[B]o rely
[a]Let's sing[B] that song
[C#min]well I did[B]n't read[a] the last [B]page
[C#min]You thought [B]of me at [a]that final [B]stage
[C#min]eenie [B]meenie [a]miney [B]mo
[C#min]It's about [B]time
[a]About time to[B] go
[C#min]eenie [B]meenie [a]miney [B]mo
[C#min]It's about [B]time
[a]About time[B] to go
carry on the chord progressions in the last 6 lines of the song, end on B
(or alternatively you could play the harmonica part)
 
 e|----------- 6---7--6------------------------------7--8---9--11---9--8-7-|
 B|------------9---- -----------9------7----------------9------------------|
 G| 9---------8---------------------9-------9---8----8---------------------|
 D|------------------------------------------------------------------------|
 A| -----------------------------------------------------------------------|
 E|------------------------------------------------------------------------|
 e|-----------6--7---6----------------------------------------------------|
 B|----------9------------9----7------------------------------------------|
 G|--------8-----------------9-----9---8---6--8---6-------6---------------|
 D|-----------------------------------------------------9----9--8--9--8-6-|
 A|-----------------------------------------------------------------------|
 E|-----------------------------------------------------------------------|
 ----------------------------------------------------------------------------

Control
 
 ----------------------------------------------------------------------------

Didnt like this song at first but its grown on me, not too hard to work out.
For the parts when John isnt singing play this, when he recorded the album he
said that he just arpeggiated the chords very quitely to get that "distant"
sound, when he played the next 3 chords he played them full volume.
Cmin (You will need to play this 4 times before John starts singing)
 
 e|----------------------------------------------------------------------- |
 B|------- 4------4-----4-----4------------------------------------------- |
 G|-----5----5----- 5----5-----5------------------------------------------ |
 D|--5----------5-----5----5----5------------------------------------------|
 A|------------------------------------------------------------------------|
 E|------------------------------------------------------------------------|

(Remember play the Cmin quitely and get louder on the next 3 chords)
It's not t[Cmin]he way [Ab]I g[B]o[F#]
It's not t[Cmin]he way [Ab]I g[B]o[F#]
Noone h[Cmin]ere hea[Ab]rs [B]me[F#]
I'm sick of [Cmin]people [Ab]kno[B]wing[F#] me
[B]Life's confusi[a]ng me[Cmin]
[B]There's so muc[a]h I don't see
[Cmin]something's con[a]trolling [B]me[Cmin]
It's no [Cmin]way to [Ab]liv[B]e[F#]
I haven't got a [Cmin]thing t[Ab]o g[B]iv[F#]e
And those s[Cmin]igns tr[Ab]ade[B] o[F#]ff
I'm a line f[Cmin]rom lou[Ab]d t[B]o [F#]soft
[B]For what I h[a]ave to say[Cmin]
[B]I wanted to [a]build a st[Cmin]age
[Cmin]I wanted [a]to feel this [B]way[Cmin]
this[Cmin] way...[a]......
For this part theres an electric guitar playing these notes with reverb, over the
top the acoustic guitar is whacking the chords, play the chords above the tab
(you should hit the B, 5 times, then strum the Cmin)
[B] [Cmin]  
 
 e|----14^---------17^----------------------------------------------------|
 B|-----------------------------------------------------------------------|
 G|-----------------------------------------------------------------------|
 D|-----------------------------------------------------------------------|
 A|-----------------------------------------------------------------------|
 E|-----------------------------------------------------------------------|

^carry this on when the lyrics come in
[B]All this things are real[Cmin]
[B]I don't know my own fiel[Cmin]d
[B]You will prove me wrong[Cmin]
[B]I don't know one
go back to the beginning tab quite to loud
I see n[Cmin]ow what[a] I've[B] got[F#]
It reve[Cmin]als jus[a]t wha[B]t is[F#] is not
Someday[Cmin] I'll t[a]ake i[B]t aw[F#]ay
There's[Cmin] nothin[a]g for[B] me [F#]anyway
[B]Love don't c[a]hoose m[Cmin]e
[B]wide don't s[a]ee a thi[Cmin]ng
(electric guitar comes in again)
[B]What I'm saying is [Cmin]now
[B]I don't know what i[Cmin]t's about
[B]I wander through th[Cmin]e dawn
[B]so much goes[Cmin] on
[B]Who will mak[Cmin]e me run
[B]I admit I might be[Cmin] wrong
[B]These letters shelter [Cmin]me now
[B]I wonder[Cmin] how
 
 ----------------------------------------------------------------------------

Your Warning
 
 ----------------------------------------------------------------------------

[G]You're w[C]arning me to ge[Em]t out of th[C]e way
[G]Was the [C]safest th[Em]ing to sa[D]y
[G]This try[C]ing to get o[Em]ut of a tigh[C]t spot
[G]Isn't ev[C]en wor[Em]th a [D]shot
[G]And all of the world calls[C] out at once
[G]give us [C]pain
It's[Em] a friend to[D] us
[G]And we don't decide for ours[C]elves very much
[G]what we are[C] we owe to t[Em]he fear of lov[D]e
(Piano comes in here, these are the chords)
( Tab from: http://www.guitartabs.cc/tabs/j/john_frusciante/curtains_tab.html )
[G]Don't bring it[C] around
[Bm]I've reached f[C]or that
[G]Iv reac[C]hed for t[Bm]hat[C]
[G]Once it is [C]found
[Bm]It turns its[C] back
[G]It turn[C]s its [Bm]back[C]
[Em]Once it is called when [Bm]you're married
[Em]and you've fallen out [G]of love[D]
[Em]What's it called when t[Bm]he family
[Em]you raised you don't know[G] at all[D]
[Bm]Give us a[D] point [C]to miss[G]
(At this point the guitar and piano play over each otherm play this line with
the piano until the end of the song)
 
 e|-----3--5---3--------2--3--------------------------------------------------|
 B|-----------------5---------------------------------------------------------|
 G|-------------------------------4---4---------------------------------------|
 D|---------------------------------------------------------------------------|
 A|---------------------------------------------------------------------------|
 E|---------------------------------------------------------------------------|

endings are killing me slow
I only ask for this empiness replace my soul
 
 --------------------------------------------------------------------------

Hope
 
 ---------------------------------------------------------------------------

This is the shortest song on the album.
[B]i feel the hope r[C#min]unning lo[B]w
we n[D]ever foun[B]d our way[C#min] home
[B]There is no more world
The[C#min] land is go[B]ne
water i[D]s all tha[B]t survived[C#min] that one[B]
[B]there ar[C#min]e no es[B]capes[C#min], no es[B]capes[C#min], no es[B]capes
[C#min]gone are the d[D]ays of [B]mistakes
[C#min]our mistakes[B]
(Theres a small electric guitar lead on this part, to replicate the tone you can
turn your amps mid and treble right down with the bass up, select a neck pickup)
 
 e|----9---7---6---7---6h7p6-------------------------------------------------|
 B|-----------------------------9---7----------------------------------------|
 G|---------------------------------------8----------------------------------|
 D|--------------------------------------------------------------------------|
 A|--------------------------------------------------------------------------|
 E|--------------------------------------------------------------------------|

[B]and did you see the ni[C#min]ght wore on[B]
and be[D]came the [B]days that [C#min]never begun
[B]The disappearing day
You k[C#min]now where I'm[B] from
Is the[D] only place[B] that for[C#min]ever stays yo[B]ung
[C#min]Lost a[B]t s[C#min]ea
[B]we're[C#min] lost a[B]t se[C#min]a
[C#min]I wouldn't know m[D]y face if[B] you a[C#min]ll were me[B]
[C#min]All we[B] h[C#min]ave is[B] al[C#min]l we se[B]e
[C#min]There is no mo[D]re hope
[B]There[C#min] are no dre[B]ams
(Electric Guitar lead)
 
 e|-----19-18--16--18--16-------16--------------------------------------------|
 B|-------------------------19------19--17--19--17-------17-------------------|
 G|--------------------------------------------------19------19--18--19-------|
 D|---------------------------------------------------------------------------|
 A|---------------------------------------------------------------------------|
 E|---------------------------------------------------------------------------|
 e|---------------------------------------------------------------------------|
 B|---------------------------------------------------------------------------|
 G|----18---16---18---16---------16-------------------------------------------|
 D|-------------------------19--------19---18---19----------------------------|
 A|---------------------------------------------------------------------------|
 E|---------------------------------------------------------------------------|
 -------------------------------------------------------------------------

Ascension
 
 -------------------------------------------------------------------------

This song is dead easy to play.
At the begining pull off the Em minore chord like this
 
 e|----------------------|
 B|----------------------|
 G|----------------------|
 D|---------0h2p0--------|
 A|--0h2p0---------------|
 E|----------------------|

[Em]Coming up to the end
[a]These feelings weren't always pretend
[Em]Review your whole life and you don't[a] even have to die
[Em]Life would never leave me alone
[a]A choice wich way i wanted to go
[Em]And everything I've seen is wrong to[a] make me what I'll be
[Em]All men[a]
[D]You don't need [G]anyone
[a]Just hold on to the end
[Em]And you don't even have to [a]look go[D]od
[Em]Woman[a]
[D]You do fine on your[G] own
[a]You're free to cry and you[Em] don't have to w[a]ipe your [D]eyes
Em (keep strumming Em through out)
Oh la la la
Oh la la la
Oh la la la
Oh la la la
Oh la la la
Oh la Oh la
You once [G]saved [D]me (repeat this 3 times)
[G]You once saved[D] me
[G]and now I'm where you want me t[D]o be
[a]Ascending endlessly and I [G]don't even have t[Em]o try
[a]Ascending endlessly and I [G]don't even have t[Em]o try
[a]Ascending endlessly and I [G]don't even have t[Em]o try
[a]Ascending endlessly and I [G]don't even have
To [Em]try
 
 ----------------------------------------------------------------------------

Time Tonight
 
 ----------------------------------------------------------------------------

This is my favourite song on the album
[B]For changing lines
[C#min]I've got no t[a]ime tonig[B]ht
[C#min] [a]  
 
 e|-----4-----------------------------------------------------------------|
 B|--------5-------------5------------------------------------------------|
 G|-----------6-------------6---------------------------------------------|
 D|-------------6--------------7------------------------------------------|
 A|-------------------------------7---------------------------------------|
 E|-----------------------------------------------------------------------|

[B]In these times
[C#min]the wind surpass[a]es the tid[B]e
[C#min] [a]  
 
 e|-------------------------------------------------------------------------|
 B|-------------------------------------------------------------------------|
 G|---------------6---------6-----------------------------------------------|
 D|-----------6---------------7---------------------------------------------|
 A|------- 4--------------------7-------------------------------------------|
 E|-----4--------------------------5----------------------------------------|

[C#min]when the [B]wake ups [a]hard to [C#min]find
dreams[B] make up for[a] your l[B]ife[a] [C#min]
[B]This crazy shine [C#min]it never [a]lets you [B]die
[C#min] [a]  
 
 e|-----4-----------------------------------------------------------------|
 B|--------5-------------5------------------------------------------------|
 G|-----------6-------------6---------------------------------------------|
 D|-------------6--------------7------------------------------------------|
 A|-------------------------------7---------------------------------------|
 E|-----------------------------------------------------------------------|

[B]Going up
We [C#min]become wha[a]t we [B]want
[C#min] [a]  
 
 e|-------------------------------------------------------------------------|
 B|-------------------------------------------------------------------------|
 G|---------------6---------6-----------------------------------------------|
 D|-----------6---------------7---------------------------------------------|
 A|------- 4--------------------7-------------------------------------------|
 E|-----4--------------------------5----------------------------------------|

[C#min]Again the m[B]oon rises[a] up too [C#min]high
And [B]we don't [a]need the [B]sky[a] [C#min]
[C#min]Wonder what it [a]is that makes the w[B]orld turn [a]slower
[C#min]wonder what it [a]is that makes me fe[B]el so [a]mad
[C#min]everyone that t[a]alks to me I so[B] wish [a]wouldn't
[C#min]I wouldn't even[B] care exept I [a]feel so [B]bad[C#min] [B]
I [a]feel so [B]bad[C#min] [B] [a] [C#min]
(There is a slight variation in chords here, listen to the record and you will
here that this is played on the lyrics "My Life" and "Time tonight")
(these are the variations)
[C#min] [B] [a] [C#min]  
 
 e|-----------4-------------2------------2----------------6------------------|
 B|-----------5-------------4---------2--2----------------6------------------|
 G|- ---------6-------------4------2--2--2-----------------------------------|
 D|-------6---6---------4---4------2--2--2-----------6-----------------------|
 A|----4--4----------2--2------------------------4---4-----------------------|
 E|----4--4----------2--2------------------------4---4-----------------------|

[C#min]why [B]is there [a]no one i[C#min]n my li[B]iiii[a]iii[C#min]ife
[C#min]time[B]
[a]there's no [C#min]time t[B]onig[a]ht[C#min]
[C#min]Wide[B]
[a]there's n[C#min]o room [B]to se[a]e w[C#min]ide
[C#min]Time[B]
[a]There's n[C#min]o time t[B]onig[a]ht[C#min]
(play these chords in the outro with the variations)
C#min,B,a,) (end on a B)
 
 ----------------------------------------------------------------------------

Leap Your Bar
 
 ----------------------------------------------------------------------------

This is a piano song and sounds pretty bad on guitar, however if you have reverb
in a pedal or amp, select strong reverb and if you have a strat guitar set the
Neck Pickup and turn the tone knobs down, it wont sound like a piano but it sounds
better than through a normal clean channel)
Hannah go leap your bar, this is how right you are
 
 e|--------------------------------------------------------------------------|
 B|--------7-----------------------------7-----------------------------------|
 G|-----6-------9----6---6-----------6-------9-------6---6-------------------|
 D|--7---------------------------7-------------------------------------------|
 A|--------------------------------------------------------------------------|
 E|--------------------------------------------------------------------------|

Im in the way it seems, people are cold and mean
 
 e|--------------------------------------------------------------------------|
 B|--------7-----------------------------7-----------------------------------|
 G|-----6-------9----6---6-----------6-------9---6---6-----------------------|
 D|--7---------------------------7-------------------------------------------|
 A|--------------------------------------------------------------------------|
 E|--------------------------------------------------------------------------|
 e|----------10--9----------------------10--9--------------------------------|
 B|----7h9-----------10---10------7h9-----------10---10----------------------|
 G|--------------------------------------------------------------------------|
 D|--------------------------------------------------------------------------|
 A|--------------------------------------------------------------------------|
 E|--------------------------------------------------------------------------|

In the valleys noon, the things that i can find
 
 e|---7--9---7--9----7-------9----7------------------------------------------|
 B|-------------------------------------10--9--7--10-------------------------|
 G|--------------------------------------------------------------------------|
 D|--------------------------------------------------------------------------|
 A|--------------------------------------------------------------------------|
 E|--------------------------------------------------------------------------|

Nothings simple soon, The stitches i can time
 
 e|---7--9--- 7--9----7-------9----7------------------------------------------|
 B|-----------------------------------10--9--7--10----------------------------|
 G|---------------------------------------------------------------------------|
 D|---------------------------------------------------------------------------|
 A|---------------------------------------------------------------------------|
 E|---------------------------------------------------------------------------|

I was so bad i was so bad
 
 e|--------------------------------------------------------------------------|
 B|---7/10-10-9------5/9---9---7---------------------------------------------|
 G|--------------------------------------------------------------------------|
 D|--------------------------------------------------------------------------|
 A|--------------------------------------------------------------------------|
 E|--------------------------------------------------------------------------|
 e|----------10--9----------------------10--9--------------------------------|
 B|----7h9-----------10---10------7h9-----------10---10----------------------|
 G|--------------------------------------------------------------------------|
 D|--------------------------------------------------------------------------|
 A|--------------------------------------------------------------------------|
 E|--------------------------------------------------------------------------|

Endless the weeds you blink nothings for sure to sink
 
 e|--------------------------------------------------------------------------|
 B|--------7-----------------------------7-----------------------------------|
 G|-----6-------9---- 6---6-----------6-------9-------6---6------------------|
 D|--7---------------------------7-------------------------------------------|
 A|--------------------------------------------------------------------------|
 E|--------------------------------------------------------------------------|

I closed an open door what is the world good for
 
 e|---------------------------------------------------------------------------|
 B|--------7-----------------------------7------------------------------------|
 G|-----6-------9-6---6----------- 6-------9-------6---6----------------------|
 D|--7---------------------------7--------------------------------------------|
 A|---------------------------------------------------------------------------|
 E|---------------------------------------------------------------------------|
 e|----------10--9----------------------10--9--------------------------------|
 B|----7h9-----------10---10------7h9-----------10---10----------------------|
 G|--------------------------------------------------------------------------|
 D|--------------------------------------------------------------------------|
 A|--------------------------------------------------------------------------|
 E|--------------------------------------------------------------------------|

the beloved cars that went to where they went
 
 e|---7--9---7--9----7-------9----7------------------------------------------|
 B|-------------------------------------10--9----7--10-----------------------|
 G|--------------------------------------------------------------------------|
 D|--------------------------------------------------------------------------|
 A|--------------------------------------------------------------------------|
 E|--------------------------------------------------------------------------|

did they actually go or were they really sent
 
 e|---------7--9--7--9--7-------9----7----------------------------------------|
 B|------------------------------------- --10--9--7--10-----------------------|
 G|---------------------------------------------------------------------------|
 D|---------------------------------------------------------------------------|
 A|---------------------------------------------------------------------------|
 E|---------------------------------------------------------------------------|

life is so sad life is so sad
 
 e|--------------------------------------------------------------------------|
 B|---7/10-10-9--------5/9---9---7-------------------------------------------|
 G|--------------------------------------------------------------------------|
 D|--------------------------------------------------------------------------|
 A|--------------------------------------------------------------------------|
 E|--------------------------------------------------------------------------|
 e|----------10--9----------------------10--9--------------------------------|
 B|----7h9-----------10---10------7h9-----------10---10----------------------|
 G|--------------------------------------------------------------------------|
 D|--------------------------------------------------------------------------|
 A|--------------------------------------------------------------------------|
 E|--------------------------------------------------------------------------|

hannah go fill your jar this isnt right you are
 
 e|--------------------------------------------------------------------------|
 B|--------7-----------------------------7-----------------------------------|
 G|-----6-------9---- 6---6-----------6-------9-------6---6------------------|
 D|--7---------------------------7-------------------------------------------|
 A|--------------------------------------------------------------------------|
 E|--------------------------------------------------------------------------|

when does the whole of to be become infinity
 
 e|--------------------------------------------------------------------------|
 B|--------7-----------------------------7-----------------------------------|
 G|-----6-------9-------- 6---6--------6----9-6---6--------------------------|
 D|--7------------------------------7----------------------------------------|
 A|--------------------------------------------------------------------------|
 E|--------------------------------------------------------------------------|
 e|----------10--9----------------------10--9--------------------------------|
 B|----7h9-----------10---10------7h9-----------10---10----------------------|
 G|--------------------------------------------------------------------------|
 D|--------------------------------------------------------------------------|
 A|--------------------------------------------------------------------------|
 E|--------------------------------------------------------------------------|

headed for the moon the mission i can buy
 
 e|---7--9---7--9----7-------9----7------------------------------------------|
 B|----------------------------------10--9----7--10--------------------------|
 G|--------------------------------------------------------------------------|
 D|--------------------------------------------------------------------------|
 A|--------------------------------------------------------------------------|
 E|--------------------------------------------------------------------------|

for ever in a line the freinds who walk right by
 
 e|--- 7--9---7--9--7-------9----7-------------------------------------------|
 B|------------------------------------- 10--9----7--10----------------------|
 G|---------------------------------------------------------------------------|
 D|---------------------------------------------------------------------------|
 A|---------------------------------------------------------------------------|
 E|---------------------------------------------------------------------------|

and never see you i never see you
 
 e|--------------------------------------------------------------------------|
 B|---7/10---10-9--------5/9----9---7----------------------------------------|
 G|--------------------------------------------------------------------------|
 D|--------------------------------------------------------------------------|
 A|--------------------------------------------------------------------------|
 E|--------------------------------------------------------------------------|
 e|----------10--9----------------------10--9--------------------------------|
 B|----7h9-----------10---10------7h9-----------10---10----------------------|
 G|--------------------------------------------------------------------------|
 D|--------------------------------------------------------------------------|
 A|--------------------------------------------------------------------------|
 E|--------------------------------------------------------------------------|

well thats the album, any questions or corrections dont hesitate to email me! cheers.

Important: The song above is NOT stored on the Chordie server. The original song is hosted at www.guitartabs.cc. Chordie works as a search engine and provides on-the-fly formatting. Chordie does not index songs against artists'/composers' will. To remove this song please click here.

Text color:
Chord color:
Chord grids: 
Font size:    
Page size: 

A Ab Abmin Am B Bb Bm Bmin C C#min Cmin D Db Dmin E Eb Em Emin F F# G Gmin
Rate #1 of 6 versions

Jango Player

Login - add to songbook

SHARE PAGE  



You need to log in to post comments