Guitar Tabs, Chords and Lyrics
Major upgrade!! After one year development the new version of Chordie is now online! Please give feedback.


The Battle of Time  John Frusciante

Song: The Battle Of Time
[F#m]Seems to be away is [E]peachy now
[F#m]Feel like may be [D]far at [E]all
[F#m]I've got these clothes to [E]deceive me
[F#m]I've been lost [D]all [E]along
[C#m]You've got a [D]mouth that's bigger
[C#m]I've got a [D]man on the side
[F#m]You'll [E]see my l[Bm]ie [D] [E]
[F#m]You've got a town to [E]speak to
[F#m]You've got [D]rented [E]dye
[F#m]I drive it around [E]somewhere
[F#m]Before I [D]was [E]alive
[C#m]I [D]was alive [C#m]_____[D]____
[F#m]You've got a mountain b[E]eneath you
[Bm]You're always known in [F#m]archive[A]s [E] [Bm]
[F#m] [A] [E] [Bm]  
[F#m]I'll a[A]lwa[E]ys [Bm]have the [F#m]side [A]
[E]All the times of [Bm]hate [F#m]
A[A]ll a[E]round, [Bm]is this h[F#m]ere [A] [E]Hey[Bm] Hey Hey...
[A]You've got a [E]running [Bm]see-saw (it's me inside)
[A]That's wh[E]at I [Bm]heard (it's the battle of time) [F#m]
I [A]have [E]always [Bm]felt fine [F#m] [A] ([E]I know, [Bm]hey)
[F#m]I've [A]nothing [E]no-one [Bm]nowhere
[F#m] [A] [E]Hey [Bm]Hey Hey...
SOLO Chords: F#m A E Bm (End on F#m)
SOLO:
 
 |-14-12----12-----------------------------------------------------------|
 |-------14-------14-12-10-12----10--------------------------------------|
 |----------------------------------11-9-11----9-------------------------|
 |-----------------------------------------------11-9-11-----9-----------|
 |-------------------------------------------------------------12-9-12---|
 |-----------------------------------------------------------------------|
 |-14-12----12-------------------12-12--------------------------|
 |-------14-------14-12-10-12----------14----12b14--12----------|
 |--------------------------------------------------------------|
 |--------------------------------------------------------------|
 |--------------------------------------------------------------|
 |--------------------------------------------------------------|
 |-14-12----12-----------------------------------------------------------|
 |-------14-------14-12-10-12----10--------------------------------------|
 |----------------------------------11-9-11----9-------------------------|
 |-----------------------------------------------11-9-11-----9-----------|
 |-------------------------------------------------------------12-9-12---|
 |-----------------------------------------------------------------------|
 |-----------------------------------------------------------------------------------------|
 |----------------------------12b14-12b14-12b14-12b14-12b14-12b14-12b14-12b14-12b14-----10-|
 |------9-------------9--------------------------------------------------------------11----|
 |-9h11---11-----9h11----------------------------------------------------------------------|
 |----------------------9------------------------------------------------------------------|
 |-----------------------------------------------------------------------------------------|

(Hahha im not sure if the lyrics are right, i took it from letssingit.com)

Important: The song above is NOT stored on the Chordie server. The original song is hosted at www.guitartabs.cc. Chordie works as a search engine and provides on-the-fly formatting. Chordie does not index songs against artists'/composers' will. To remove this song please click here.

Text color:
Chord color:
Chord grids: 
Font size:    
Page size: 

A Bm C#m D E F#m
Rate #1 of 2 versions

Login - add to songbook

SHARE PAGE  



You need to log in to post comments