Guitar Tabs, Chords and Lyrics
Server problems seems to be fixed. Chordie has been experiencing problems with songs disappearing. These issues now seems to be fixed, but still verifying the fix. If you find anything strange, please email admin@chordie.com.


All We Ever Do Is Say Goodbye  John Mayer

 
 -----------------------------------------------------------------

All We Ever Do is Say Goodbye - John Mayer
 
 -----------------------------------------------------------------

Tabbed by: Mayer95
Tuning: Half Step Down
All bass notes are played with thumb.
CHORDS USED
[E] [C#m] [G#m] [Bm7] [A] [F#m] [B] [Dm7]  
 
 |--0---x----x----x---x---x---x---x-------------------------------|
 |--0---5----4----4---5---2---7---7-------------------------------|
 |--1---6----4----4---6---2---8---7-------------------------------|
 |--2---6----6----4---7---4---9---7-------------------------------|
 |--2---4----x----2---x---x---x---5-------------------------------|
 |--0---x----4----x---5---2---7---x-------------------------------|

[E]Just when I[C#m] had you off my [G#m]head
[Bm7]Your voice comes thrashing wi[A]ldly through my [A]qu[F#m]iet b[E]ed
[E]You say you w[C#m]anna try a[G#m]gain
[Bm7]But I've tried eve[A]rything but [A]gi[F#m]ving i[E]n[F#m]
[Bm7]Why you wanna break my heart again[F#m]
[Bm7]Why am I gonna let you try
When a[E]ll we ever[C#m] do is say go[B]odbye
[B]All we ever [A]do is say goodb[E]ye
[E]All we ever[C#m] do is sa[G#m]y goodbye
[B]All we ever [A]do is say goodb[E]ye
[E]I bought a [C#m]ticket on a plan[G#m]e
[Bm7]And by the time it lan[A]ded, you were go[A]ne [F#m]again[E]
( Tab from: http://www.guitartabs.cc/tabs/j/john_mayer/all_we_ever_do_is_say_goodbye_crd.html )
[E]I love you mo[C#m]re than songs can[G#m] say
[Bm7]But I can't keep r[A]unning after[A] y[F#m]esterd[E]ay[F#m]
[Bm7]Why you wanna break my heart again[F#m]
[Bm7]Why am I gonna let you try
When a[E]ll we ever[C#m] do is say go[B]odbye
[B]All we ever [A]do is say goodb[E]ye
[E]All we ever[C#m] do is sa[G#m]y goodbye
[B]All we ever [A]do is say goodb[E]ye
[A]We say goodbye
[A]We say goodbye
[E]We say goodbye
SOLO
 
 e|---------------------------------------------------------------|
 B|---------------------------------------------------------------|
 G|-7/9--14\11----------7/9--16\11--9/11/13--11/13--9/11/13--11/13|
 D|------------7/9\7/9--------------------------------------------|
 A|---------------------------------------------------------------|
 E|---------------------------------------------------------------|
 e|---------------------------------------------------------------|
 B|-------14------------12--14/17---------------------------------|
 G|14\13-----13--14\13--------------------------------------------|
 D|---------------------------------------------------------------|
 A|---------------------------------------------------------------|
 E|---------------------------------------------------------------| 

[E]All we eve[C#m]r do is say g[B]oodbye
[B]All we ever [A]do is say goodb[E]ye
[E]All we ever[C#m] do is sa[G#m]y goodbye
[B]All we ever [A]do is say goodb[E]ye
| / slide up
| \ slide down
| h hammer-on
| p pull-off
| ~ vibrato
| + harmonic
| x Mute note

Important: The song above is NOT stored on the Chordie server. The original song is hosted at www.guitartabs.cc. Chordie works as a search engine and provides on-the-fly formatting. Chordie does not index songs against artists'/composers' will. To remove this song please click here.

Text color:
Chord color:
Chord grids: 
Font size:    
Page size: 

A B Bm7 C#m Dm7 E F#m G#m
Rate #1 of 14 versions

Login - add to songbook

SHARE PAGE  



You need to log in to post comments