Guitar Tabs, Chords and Lyrics
Major upgrade!! After one year development the new version of Chordie is now online! Please give feedback.


Comfortable  John Mayer

I know this is a little different than the actual version but hopefully you will find it
little bit more playable. Also you're really supposed to have a capo on the third fret
i really don't think it matters.
D = xx0232
D* = xx0030
Bm = 224432
Am7 = x02010
D7 = xx0212
G = 320003
A = x02220
A7sus4 = x02030
Dsus2 = x02230
D6 = 224232
 
 e---0h2-------2p0-------0--2--3--2----------2--2--2p0-------0--2--3-|
 b---3--------------3----3-------------------3--3--3----3----1-------|
 g---2-------2-----------0----------------0------------------0-------|
 d---0-----0-------------2-----------------------------------2-------|
 a-----------------------1-------------2---------------------0-------|
 e-------------------------------------------------------------------|
 e---2p0----3-----------------3----0----2-----|
 b---1------0---0---2---3-----0----2----3-----|
 g---2------0---0---2---4-----0----2----4-----|
 d---0------0-----------4-----0----2----4-----|
 a----------2-----------------2----0----2-----|
 e----------3-----------------3---------2-----|

D D*
I just remembered, that time at the market
[Bm]Snuck up behind me and [Am7]jumped on my [D7]shopping [G]cart
G A Bm D* Bm
And rode down, isle five
D D*
You looked behind you to smile back at me
[Bm]Crashed into a [Am7]rack full of [D7]magaz[G]ines
[G]They [A]asked [Bm]us, [G]if [A]we [Bm]could [D]leave
D* - Bm Am7 D7 (played like the verse)
( Tab from: http://www.guitartabs.cc/tabs/j/john_mayer/comfortable_crd_ver_4.html )
[G]Can't re[A]member, what went [G]wrong last Sep[A]tember
Though Im [G]sure that you'd re[A]mind me, if you [Bm]had to
[D] [A7sus4] [G] 
[A] Our love was, comfortable and so broken in
(let note fade out)
D D*
I sleep with this new girl Im still getting used to
My [Bm]friends all approve, say shes [Am7]gonna be [D7]good for [G]you
G A Bm D* Bm
They throw me, high fives
D D*
She says that the bible is all that she reads
[Bm] And prefers that I [Am7]not use pro[D7]fan-[G]ity
G A Bm D* Bm
Your mouth was, so dirty
[G]Life of the [A]party and she [G]swears that she's [A]artsy
But [G]you could disting[A]uish Miles from [Bm]Coltrane
[D] [A7sus4] [G] 
[A] Our love was, comfortable and so broken in
[D] She's perfect,[A7sus4] so flawless [G] or so they [Dsus2]say[A]
(let note fade out)
D D*
She thinks I can't see the smile that she's faking
and [Bm]poses for pictures that [Am7]aren't being [D7]tak-[G]en
[G]I [A]loved [Bm]you [G]grey [A]sweat [Bm]pants
[G]No [A]make[Bm]up, [G]so [A]per[D6]fect
[D] [A7sus4] [G] 
[A] Our love was, comfortable and so broken in
[D] She's perfect,[A7sus4] so flawless [G] I'm not im[Dsus2]pressed[A],
[G] I want you [Dsus2]back[A]

Important: The song above is NOT stored on the Chordie server. The original song is hosted at www.guitartabs.cc. Chordie works as a search engine and provides on-the-fly formatting. Chordie does not index songs against artists'/composers' will. To remove this song please click here.

Text color:
Chord color:
Chord grids: 
Font size:    
Page size: 

A A7sus4 Am7 Bm D D6 D7 Dsus2 G
Rate #2 of 10 versions

Jango Player

Login - add to songbook

SHARE PAGE  




You need to log in to post comments