Guitar Tabs, Chords and Lyrics
Major upgrade!! After one year development the new version of Chordie is now online! Please give feedback.


Born to Lose  Johnny Cash

Intro and solo:
 
 e|----------------------------------|
 B|----------------------------------|
 G|----------------------------------|
 D|-3-3-2----------------------0-3---|
 A|--------5-3-------------0-3-------|
 E|--------------5-6--3-1------------|

Born to l[G]ose, I've li[C]ved my life in va[G]in
Ev'ry d[C]ream has only brought me [G]pain
All my li[G]fe I've al[G7]ways been so bl[C]ue
Born to l[D7]ose, and now I'm losing [G]you
Born to lose, it seems so hard to bear
how I long to always have you near
You've grown tired, and now you say we're through
Born to lose, and now I'm losing you
riff
 
 e|---------------------------------|
 B|---------------------------------|
 G|---------------------------------|
 D|-3-3-2---------------------0-3---|
 A|--------5-3------------0-3-------|
 E|--------------5-6--3-1-----------|


Important: The song above is NOT stored on the Chordie server. The original song is hosted at www.guitartabs.cc. Chordie works as a search engine and provides on-the-fly formatting. Chordie does not index songs against artists'/composers' will. To remove this song please click here.

Text color:
Chord color:
Chord grids: 
Font size:    
Page size: 

C D7 G G7
Rate #1 of 3 versions

Jango Player

Login - add to songbook

SHARE PAGE  



You need to log in to post comments