Guitar Tabs, Chords and Lyrics
Login is temporarily disabled for some users. Do not panic. Will be back in an hour or two. DO NOT REREGISTER!!


In My Life  Johnny Cash

 
 e------5---------------------------|
 b---------------------9------------|
 G---6-----6---7---9------9---------|
 D----------------------------------| x2
 A---------------------7-----7-7-7--|
 E---5-----5---7---9----------------|

Then just pinch/pick random notes out of the following chords throughout the whole song:
[A]There are places [E]i'll re[F#m]member[A7]
[D]All my li[Dm]fe though [A]some have changed
[A]Some forever [E]not for b[F#m]etter[A7]
[D]Some have[Dm] gone and [A]some remain
[F#m]All these places have their m[Bm]oments
With [G]lovers and friends i [A]still can recall
[F#m]Some are dead and some are li[Bm]ving
[D]In my l[Dm]ife i've l[A]oved them all
intro again:
 
 e------5---------------------------|
 b---------------------9------------|
 G---6-----6---7---9------9---------|
 D----------------------------------|
 A---------------------7-----7-7-7--|
 E---5-----5---7---9----------------|

[A]But of all these [E]friends[F#m] and l[A7]overs
[D]There is [Dm]no one com[A]pares with you
[A]And these memorie[E]s lose [F#m]their [A7]meaning
[D]When i th[Dm]ink of lov[A]e as something new
[F#m]Though i know i'll never lose[Bm] affection
[G]For people and things that [A]went before
[F#m]I know i'll often stop and th[Bm]ink about them
[D]In my [Dm]life i [A]love you more
Solo: A E F#m A7 D Dm A x2
[F#m]Though i know i'll never lose[Bm] affection
[G]For people and things that [A]went before
[F#m]I know i'll often stop and think [Bm]about them
[D]In my [Dm]life i l[A]ove you more
 
 e------5---------------------7--9--7--5--|
 b---------------------9------9--7--9--5--|
 G---6-----6---7---9------9---9--9--9--6--|
 D----------------------------9--9--9--7--|
 A---------------------7------7--7--7--7--|
 E---5-----5---7---9---------x---------5--|


Important: The song above is NOT stored on the Chordie server. The original song is hosted at www.guitartabs.cc. Chordie works as a search engine and provides on-the-fly formatting. Chordie does not index songs against artists'/composers' will. To remove this song please click here.

Text color:
Chord color:
Chord grids: 
Font size:    
Page size: 

A A7 Bm D Dm E F#m G
Rate #1 of 8 versions

Jango Player

Login - add to songbook

SHARE PAGE  



You need to log in to post comments