Guitar Tabs, Chords and Lyrics
Login is temporarily disabled for some users. Do not panic. Will be back in an hour or two. DO NOT REREGISTER!!


Wanted Man  Johnny Cash

? written by Bob Dylan
? performed by John R. Cash
Intro
 
 E---------------------------------------------------------------------------|
 B---------------------------------------------------------------------------|
 G---------------------------------------------------------------------------|
 D------0-0-0-0-----0-0-0----2-2-2-0-2------2-2-2---2-2-4-2--0-0-0---0-------|
 A--0-2-----------2--------2------------0-4-------4----------------2---------|
 E---------------------------------------------------------------------------|

Verse 1:
Wa[D]nted man in California,wanted man in Buffalo[Em]
Wanted[A] man in Kansas city,wanted man in Ohio[G] [D]
Wa[D]nted man in Mississppi,wanted man in ol' Cheyenne[Em]
[A]  
Wherever you m[D]ight look tonight you might see this wanted man
Verse 2:
[D]I might be in Colorado,or Georgia by the [Em]sea
[A]  
Working for [D]some man who may not know at all who i might be
I[D]f you ever see me coming and if you know who i am[Em]
[A]  
Don't you brea[D]the it to nobody 'cause you know i'm on the lamb
Verse 3:
W[D]anted man by Lucy Watson,wanted man by Jeannie Brown[Em]
[A] [G] 
Wanted man by[D] Nellie Johnson,wanted man in this next town
I[D]'ve had all that i wanted of a lot of thing[Em]s i've had
[A] [G] 
And a lot more than i[D] needed of some things that turned out bad
Solo X2 :
 
 E---------------------------------------------------------------------|
 B---------------------------------------------------------------------|
 G---------------------------------------------------------------------|
 D------0-0-0-0-----0-0-0----2-2-2-0-2------2-2-2---2-2-4-2--0-0-0---0-|
 A--0-2-----------2--------2------------0-4-------4----------------2---|
 E---------------------------------------------------------------------|

Verse 4:
I[D] got a sidetracked in El Paso,stopped to get myself a map[Em]
[A] [G] 
Wen[D]t the wrong way in Pleura with Juanita on my back
W[D]ent to sleep in Shreveport,woke up in Abilene[Em]
[A]  
Wonderin' why[D] the hell i'm wanted at some town half way between
Verse 5:
Wa[D]nted man in Albuquerque,wanted man in Syracuse[Em]
[A] [G] 
Want[D]ed man in Tallahassee,wanted man in Baton Rouge
T[D]here's somebody sent to grab me anywhere that i migh[Em]t be
[A]  
[G] And wherever you m[D]ight look tonight you might get a glimpse of me
Verse 6:
Wa[D]nted man in California,wanted man in Buffalo[Em]
Wanted man in [A]Kansas city,wanted man in Ohio[G] [D]
Wa[D]nted man in Mississppi,wanted man in ol' Cheyenne[Em]
[A]  
Wherever you [D]might look tonight you might see this wanted man
Chords by: Israėl «La Louve» Flageole
un_intrus@hotmail.com

Important: The song above is NOT stored on the Chordie server. The original song is hosted at www.guitartabs.cc. Chordie works as a search engine and provides on-the-fly formatting. Chordie does not index songs against artists'/composers' will. To remove this song please click here.

Text color:
Chord color:
Chord grids: 
Font size:    
Page size: 

A D Em G
Rate #1 of 8 versions

Jango Player

Login - add to songbook

SHARE PAGE  



You need to log in to post comments