Guitar Tabs, Chords and Lyrics
Login is temporarily disabled for some users. Do not panic. Will be back in an hour or two. DO NOT REREGISTER!!


What Do I Care  Johnny Cash

 
 ---------------------------------------------------------------------------

WHAT DO I CARE ? Johnny Cash
 
 ---------------------------------------------------------------------------

From the album Ring of Fire: The Best of Johnny Cash (1963)
Tabbed by: Justin Muir
Email: HojoSeph99@optonline.net
Tuning: Standard, Capo 1st Fret (Chords are relative to capo)
Intro (strum slowly)
When [E]I'm all through if I haven't been what [B7]they think I should be
If the [A]total isn't high enough [E]when they figure me
When [E]I grow old if there's no gray from [A]worry in my hair
(syncopated strumming)
What do I [B7]care what do I [E]care
What do I [A]care just as long as you were [E]mine a little while
When the [A]road was long and weary you [E]gave me a few good mile
What do I [A]care if I miss a goal be[E]cause I make a slip
I'll [F#7]still be satisfied because I t[B7]asted your sweet lips
What do I [A]care if I never have much [E]money
And some[A]times my table looks a little [E]bare
Any[A]thing that I may miss is made up [E]for each time we kiss
You love [F#7]me and I love y[B7]ou so what do I c[E]are
Guitar Solo (not relative to capo):
 
 e|--------------------------------------------------|
 B|--------------------------------------------------|
 G|--------------------------------------------------|
 D|----------------------------------------2---------|
 A|-5-7-8---5-7-8---5-5-5-3----3-4-5---5-5-----3-----|
 E|------------------------------------------------1-|

What do I [A]care just as long as you were [E]mine a little while
When the [A]road was long and weary you [E]gave me a few good mile
What do I [A]care if I miss a goal be[E]cause I make a slip
I'll [F#7]still be satisfied because I t[B7]asted your sweet lips
What do I [A]care if I never have much [E]money
And some[A]times my table looks a little [E]bare
Any[A]thing that I may miss is made up [E]for each time we kiss
You love [F#7]me and I love y[B7]ou so what do I c[E]are
Ending (not relative to capo):
 
 e|----------------|
 B|----------------|
 G|----------------|
 D|----------------|
 A|-3--3-3--1------|
 E|-----------3--1-|


Important: The song above is NOT stored on the Chordie server. The original song is hosted at www.guitartabs.cc. Chordie works as a search engine and provides on-the-fly formatting. Chordie does not index songs against artists'/composers' will. To remove this song please click here.

Text color:
Chord color:
Chord grids: 
Font size:    
Page size: 

A B7 E F#7
Rate #0 of 4 versions

Login - add to songbook

SHARE PAGE  



You need to log in to post comments