Guitar Tabs, Chords and Lyrics
Server problems seems to be fixed. Chordie has been experiencing problems with songs disappearing. These issues now seems to be fixed, but still verifying the fix. If you find anything strange, please email admin@chordie.com.


Jump to the Rhythm  Jordan Pruitt

 
 ------------------------------------------------------------------------------

JoRDaN PRuiTT
Song : Jump To The Rhythm
Album : No Ordinary Girl
>> 6 Strings Guitar
 
 >--------------------------------------------------------------------------------|
 Tunning : Dropped D - (D-A-D-G-B-E)
 ---------------------------------------------------------------------------------|

>> Informations : n/a (by xx_xx_my_angel_xx_xx@hotmail.com)
 
 ------------------------------------------------------------------------------

[a] accentuate - [b] bend - [m] p-mute - [ops] open strings - [b] harmony
[~] Sustain
[^] Legato
[x] Block
[/] Pull Up
[\] Pull Down
 
 ------------------------------------------------------------------------------

Intro - 00:00
 
 ||--------------------------------------------------------------|
 ||-------------------------------------9--9---------7------7----|
 ||------11-----10------8----8-------11----10------9------8------|
 ||---11---(11)-11----9--(9)-9----11-------------9------9--------|
 ||--------------------------------------------------------------|
 ||--------------------------------------------------------------|
 ----------------------------------------------------------------------

Fill 1 - 00:09 - Funky Tech.
[A] [A] [A] [/ \ / \ / \] 
 
 ||-----------------------------------------------|
 ||---11--11----9-9----x-x-x-x-x-x--7^9-9-9-9-9---|
 ||---11--11----9-9----x-x-x-x-x-x--9-9-9-9-9-9---|
 ||-----------------------------------------------|
 ||-----------------------------------------------|
 ||-----------------------------------------------|

[A] [\ / \ / \ ] [A] 
 
 ---4^^11-11-11-11-11---9----|
 ---5^^9--9--9--9--9----9----|
 ----------------------------|
 ----------------------------|
 ----------------------------|
 ----------------------------|

(00:14)
[A] [A] [A] [/ \ / \ / \] 
 
 ||-----------------------------------------------|
 ||---11--11----9-9----x-x-x-x-x-x--7^9-9-9-9-9---|
 ||---11--11----9-9----x-x-x-x-x-x--9-9-9-9-9-9---|
 ||-----------------------------------------------|
 ||-----------------------------------------------|
 ||-----------------------------------------------|

[A] [\ / \ / \ ] [A] 
 
 ---4^^11-11-11-11-11---9----|
 ---5^^9--9--9--9--9----9----|
 ----------------------------|
 ----------------------------|
 ----------------------------|
 ----------------------------|

(00:18)
[A] [A] [A] [/ \ / \ / \] 
 
 ||-----------------------------------------------|
 ||---11--11----9-9----x-x-x-x-x-x--7^9-9-9-9-9---|
 ||---11--11----9-9----x-x-x-x-x-x--9-9-9-9-9-9---|
 ||-----------------------------------------------|
 ||-----------------------------------------------|
 ||-----------------------------------------------|

[A] [\ / \ / \ ] [A] 
 
 ---4^^11-11-11-11-11---9----|
 ---5^^9--9--9--9--9----9----|
 ----------------------------|
 ----------------------------|
 ----------------------------|
 ----------------------------|

(00:22)
[A] [A] [A] [/ \ / \ / \] 
 
 ||-----------------------------------------------|
 ||---11--11----9-9----x-x-x-x-x-x--7^9-9-9-9-9---|
 ||---11--11----9-9----x-x-x-x-x-x--9-9-9-9-9-9---|
 ||-----------------------------------------------|
 ||-----------------------------------------------|
 ||-----------------------------------------------|

[A] [\ / \ / \ ] [A] 
 
 ---4^^11-11-11-11-11---9----|
 ---5^^9--9--9--9--9----9----|
 ----------------------------|
 ----------------------------|
 ----------------------------|
 ----------------------------|

(00:27)
[A] [A] [A] [/ \ / \ / \] 
 
 ||-----------------------------------------------|
 ||---11--11----9-9----x-x-x-x-x-x--7^9-9-9-9-9---|
 ||---11--11----9-9----x-x-x-x-x-x--9-9-9-9-9-9---|
 ||-----------------------------------------------|
 ||-----------------------------------------------|
 ||-----------------------------------------------|

[A] [\ / \ / \ ] [A] 
 
 ---4^^11-11-11-11-11---9----|
 ---5^^9--9--9--9--9----9----|
 ----------------------------|
 ----------------------------|
 ----------------------------|
 ----------------------------|

(00:31)
[A] [A] [A] [/ \ / \ / \] 
 
 ||-----------------------------------------------|
 ||---11--11----9-9----x-x-x-x-x-x--7^9-9-9-9-9---|
 ||---11--11----9-9----x-x-x-x-x-x--9-9-9-9-9-9---|
 ||-----------------------------------------------|
 ||-----------------------------------------------|
 ||-----------------------------------------------|

[A] [\ / \ / \ ] [A] 
 
 ---4^^11-11-11-11-11---9----|
 ---5^^9--9--9--9--9----9----|
 ----------------------------|
 ----------------------------|
 ----------------------------|
 ----------------------------|

(00:36)
[A] [A] [A] [/ \ / \ / \] 
 
 ||-----------------------------------------------|
 ||---11--11----9-9----x-x-x-x-x-x--7^9-9-9-9-9---|
 ||---11--11----9-9----x-x-x-x-x-x--9-9-9-9-9-9---|
 ||-----------------------------------------------|
 ||-----------------------------------------------|
 ||-----------------------------------------------|

[A] [\ / \ / \ ] [A] 
 
 ---4^^11-11-11-11-11---9----|
 ---5^^9--9--9--9--9----9----|
 ----------------------------|
 ----------------------------|
 ----------------------------|
 ----------------------------|

(00:40)
[A] [A] [A] [/ \ / \ / \] 
 
 ||-----------------------------------------------|
 ||---11--11----9-9----x-x-x-x-x-x--7^9-9-9-9-9---|
 ||---11--11----9-9----x-x-x-x-x-x--9-9-9-9-9-9---|
 ||-----------------------------------------------|
 ||-----------------------------------------------|
 ||-----------------------------------------------|

[A] [\ / \ / \ ] [A] 
 
 ---4^^11-11-11-11-11---9----|
 ---5^^9--9--9--9--9----9----|
 ----------------------------|
 ----------------------------|
 ----------------------------|
 ----------------------------|

(00:45)
[A] [A] [A] [/ \ / \ / \] 
 
 ||-----------------------------------------------|
 ||---11--11----9-9----x-x-x-x-x-x--7^9-9-9-9-9---|
 ||---11--11----9-9----x-x-x-x-x-x--9-9-9-9-9-9---|
 ||-----------------------------------------------|
 ||-----------------------------------------------|
 ||-----------------------------------------------|

[A] [\ / \ / \ ] [A] 
 
 ---4^^11-11-11-11-11---9----|
 ---5^^9--9--9--9--9----9----|
 ----------------------------|
 ----------------------------|
 ----------------------------|
 ----------------------------|

(00:49)
[A] [A] [A] [/ \ / \ / \] 
 
 ||-----------------------------------------------|
 ||---11--11----9-9----x-x-x-x-x-x--7^9-9-9-9-9---|
 ||---11--11----9-9----x-x-x-x-x-x--9-9-9-9-9-9---|
 ||-----------------------------------------------|
 ||-----------------------------------------------|
 ||-----------------------------------------------|
 ----------------------------------------------------------------------

Fill 2 - 00:53 - Funky Tech.
[A] [A] [A] [/ \ / \ / \] 
 
 ||-----------------------------------------------|
 ||---11--11----9-9----x-x-x-x-x-x--7^9-9-9-9-9---|
 ||---11--11----9-9----x-x-x-x-x-x--9-9-9-9-9-9---|
 ||-----------------------------------------------|
 ||-----------------------------------------------|
 ||-----------------------------------------------|

[A] [\ / \ / \ ] [A] 
 
 ---4^^11-11-11-11-11---9----|
 ---5^^9--9--9--9--9----9----|
 ----------------------------|
 ----------------------------|
 ----------------------------|
 ----------------------------|

[A] [A] [A] [/ \ / \ / \] 
 
 ||-----------------------------------------------|
 ||---11--11----9-9----x-x-x-x-x-x--7^9-9-9-9-9---|
 ||---11--11----9-9----x-x-x-x-x-x--9-9-9-9-9-9---|
 ||-----------------------------------------------|
 ||-----------------------------------------------|
 ||-----------------------------------------------|

[A] [\ / \ / \ ] [A] 
 
 ---4^^11-11-11-11-11---9----|
 ---5^^9--9--9--9--9----9----|
 ----------------------------|
 ----------------------------|
 ----------------------------|
 ----------------------------|

[A] [A] [A] [/ \ / \ / \] 
 
 ||-----------------------------------------------|
 ||---11--11----9-9----x-x-x-x-x-x--7^9-9-9-9-9---|
 ||---11--11----9-9----x-x-x-x-x-x--9-9-9-9-9-9---|
 ||-----------------------------------------------|
 ||-----------------------------------------------|
 ||-----------------------------------------------|

[A] [\ / \ / \ ] [A] 
 
 ---4^^11-11-11-11-11---9----|
 ---5^^9--9--9--9--9----9----|
 ----------------------------|
 ----------------------------|
 ----------------------------|
 ----------------------------|

[A] [A] (softly)
 
 ------------------------------------||
 ---11-----11------------14^16^14----||
 ---11-----12------------14-14-14----||
 ---13-----13------------------------||
 ------------------------------------||
 ------------------------------------||
 ----------------------------------------------------------------------

Fill 3 - 01:11 (Game Boy Sound)
 
 ||---14-----------------|
 ||------14----15--14----|
 ||---------14-----------|
 ||----------------------|
 ||----------------------|
 ||----------------------|
 ----------------------------------------------------------------------

Fill 4 - 01:13 - Funky Tech.
[A] [A] [A] [/ \ / \ / \] 
 
 ||-----------------------------------------------|
 ||---11--11----9-9----x-x-x-x-x-x--7^9-9-9-9-9---|
 ||---11--11----9-9----x-x-x-x-x-x--9-9-9-9-9-9---|
 ||-----------------------------------------------|
 ||-----------------------------------------------|
 ||-----------------------------------------------|

[A] [\ / \ / \ ] [A] 
 
 ---4^^11-11-11-11-11---9----|
 ---5^^9--9--9--9--9----9----|
 ----------------------------|
 ----------------------------|
 ----------------------------|
 ----------------------------|

(Repeat X9)
[-](0[-]1:[-]53)
10th:
[A] [A] [A] [/ \ / \ / \] 
 
 ||-----------------------------------------------|
 ||---11--11----9-9----x-x-x-x-x-x--7^9-9-9-9-9---|
 ||---11--11----9-9----x-x-x-x-x-x--9-9-9-9-9-9---|
 ||-----------------------------------------------|
 ||-----------------------------------------------|
 ||-----------------------------------------------|
 ----------------------------------------------------------------------

Fill 5 - 01:58 - Funky Tech.
[A] [A] [A] [/ \ / \ / \] 
 
 ||-----------------------------------------------|
 ||---11--11----9-9----x-x-x-x-x-x--7^9-9-9-9-9---|
 ||---11--11----9-9----x-x-x-x-x-x--9-9-9-9-9-9---|
 ||-----------------------------------------------|
 ||-----------------------------------------------|
 ||-----------------------------------------------|

[A] [\ / \ / \ ] [A] 
 
 ---4^^11-11-11-11-11---9----|
 ---5^^9--9--9--9--9----9----|
 ----------------------------|
 ----------------------------|
 ----------------------------|
 ----------------------------|

[A] [A] [A] [/ \ / \ / \] 
 
 ||-----------------------------------------------|
 ||---11--11----9-9----x-x-x-x-x-x--7^9-9-9-9-9---|
 ||---11--11----9-9----x-x-x-x-x-x--9-9-9-9-9-9---|
 ||-----------------------------------------------|
 ||-----------------------------------------------|
 ||-----------------------------------------------|

[A] [\ / \ / \ ] [A] 
 
 ---4^^11-11-11-11-11---9----|
 ---5^^9--9--9--9--9----9----|
 ----------------------------|
 ----------------------------|
 ----------------------------|
 ----------------------------|

[A] [A] [A] [/ \ / \ / \] 
 
 ||-----------------------------------------------|
 ||---11--11----9-9----x-x-x-x-x-x--7^9-9-9-9-9---|
 ||---11--11----9-9----x-x-x-x-x-x--9-9-9-9-9-9---|
 ||-----------------------------------------------|
 ||-----------------------------------------------|
 ||-----------------------------------------------|

[A] [\ / \ / \ ] [A] 
 
 ---4^^11-11-11-11-11---9----|
 ---5^^9--9--9--9--9----9----|
 ----------------------------|
 ----------------------------|
 ----------------------------|
 ----------------------------|

[A] [A] (softly)
 
 ------------------------------------||
 ---11-----11------------14^16^14----||
 ---11-----12------------14-14-14----||
 ---13-----13------------------------||
 ------------------------------------||
 ------------------------------------||
 ----------------------------------------------------------------------

Fill 6 - 02:16 - (Game Boy Sound)
 
 ||-------------------------------------------------------|
 ||-------------------------------------------------------|
 ||-----------------11-11---13^14-14--11-11--10-10--------|
 ||---11-11--14-14----------------------------------11----|
 ||-------------------------------------------------------|
 ||-------------------------------------------------------|

(Clavinet)
 
 -------------------------------------------------------|
 -------------------------------------------------------|
 -------------------------------------------------------|
 -------------------------------------------------------|
 -------------------------------------------------------|
 -------------------------------------------------------|
 ||-------------------------------------------------------|
 ||-------------------------------------------------------|
 ||-----------------11-11---13^14-14--11-11--10-10--------|
 ||---11-11--14-14----------------------------------11----|
 ||-------------------------------------------------------|
 ||-------------------------------------------------------|
 ----------------------------------------------------------------------

Fill 7 - 02:42 (Game Boy Sound)
 
 ||---14-----------------|
 ||------14----15--14----|
 ||---------14-----------|
 ||----------------------|
 ||----------------------|
 ||----------------------|
 ----------------------------------------------------------------------

Fill 8 - 02:51 - Funky Tech.
[A] [A] [A] [/ \ / \ / \] 
 
 ||-----------------------------------------------|
 ||---11--11----9-9----x-x-x-x-x-x--7^9-9-9-9-9---|
 ||---11--11----9-9----x-x-x-x-x-x--9-9-9-9-9-9---|
 ||-----------------------------------------------|
 ||-----------------------------------------------|
 ||-----------------------------------------------|

[A] [\ / \ / \ ] [A] 
 
 ---4^^11-11-11-11-11---9----|
 ---5^^9--9--9--9--9----9----|
 ----------------------------|
 ----------------------------|
 ----------------------------|
 ----------------------------|

(Repeat X3)
[-](0[-]3:[-]05)
4th:
[A] [A] [A] [/ \ / \ / \] 
 
 ||-----------------------------------------------|
 ||---11--11----9-9----x-x-x-x-x-x--7^9-9-9-9-9---|
 ||---11--11----9-9----x-x-x-x-x-x--9-9-9-9-9-9---|
 ||-----------------------------------------------|
 ||-----------------------------------------------|
 ||-----------------------------------------------|
 ----------------------------------------------------------------------

Fill 9 - 03:09 - Funky Tech.
[A] [A] [A] [/ \ / \ / \] 
 
 ||-----------------------------------------------|
 ||---11--11----9-9----x-x-x-x-x-x--7^9-9-9-9-9---|
 ||---11--11----9-9----x-x-x-x-x-x--9-9-9-9-9-9---|
 ||-----------------------------------------------|
 ||-----------------------------------------------|
 ||-----------------------------------------------|

[A] [\ / \ / \ ] [A] 
 
 ---4^^11-11-11-11-11---9----|
 ---5^^9--9--9--9--9----9----|
 ----------------------------|
 ----------------------------|
 ----------------------------|
 ----------------------------|

[A] [A] [A] [/ \ / \ / \] 
 
 ||-----------------------------------------------|
 ||---11--11----9-9----x-x-x-x-x-x--7^9-9-9-9-9---|
 ||---11--11----9-9----x-x-x-x-x-x--9-9-9-9-9-9---|
 ||-----------------------------------------------|
 ||-----------------------------------------------|
 ||-----------------------------------------------|

[A] [\ / \ / \ ] [A] 
 
 ---4^^11-11-11-11-11---9----|
 ---5^^9--9--9--9--9----9----|
 ----------------------------|
 ----------------------------|
 ----------------------------|
 ----------------------------|

[A] [A] [A] [/ \ / \ / \] 
 
 ||-----------------------------------------------|
 ||---11--11----9-9----x-x-x-x-x-x--7^9-9-9-9-9---|
 ||---11--11----9-9----x-x-x-x-x-x--9-9-9-9-9-9---|
 ||-----------------------------------------------|
 ||-----------------------------------------------|
 ||-----------------------------------------------|

[A] [\ / \ / \ ] [A] 
 
 ---4^^11-11-11-11-11---9----|
 ---5^^9--9--9--9--9----9----|
 ----------------------------|
 ----------------------------|
 ----------------------------|
 ----------------------------|

[A] [A] (softly)
 
 ------------------------------------||
 ---11-----11------------14^16^14----||
 ---11-----12------------14-14-------||
 ---13-----13------------------------||
 ------------------------------------||
 ------------------------------------||
 ----------------------------------------------------------------------

Fill 10 - 03:27 (Clap Hands) - Funky Tech.
[A] [A] [A] [/ \ / \ / \] 
 
 ||-----------------------------------------------|
 ||---11--11----9-9----x-x-x-x-x-x--7^9-9-9-9-9---|
 ||---11--11----9-9----x-x-x-x-x-x--9-9-9-9-9-9---|
 ||-----------------------------------------------|
 ||-----------------------------------------------|
 ||-----------------------------------------------|

[A] [\ / \ / \ ] [A] 
 
 ---4^^11-11-11-11-11---9----|
 ---5^^9--9--9--9--9----9----|
 ----------------------------|
 ----------------------------|
 ----------------------------|
 ----------------------------|

[A] [A] [A] [/ \ / \ / \] 
 
 ||-----------------------------------------------|
 ||---11--11----9-9----x-x-x-x-x-x--7^9-9-9-9-9---|
 ||---11--11----9-9----x-x-x-x-x-x--9-9-9-9-9-9---|
 ||-----------------------------------------------|
 ||-----------------------------------------------|
 ||-----------------------------------------------|

[A] [\ / \ / \ ] [A] 
 
 ---4^^11-11-11-11-11---9----|
 ---5^^9--9--9--9--9----9----|
 ----------------------------|
 ----------------------------|
 ----------------------------|
 ----------------------------|

[A] [A] [A] [/ \ / \ / \] 
 
 ||-----------------------------------------------|
 ||---11--11----9-9----x-x-x-x-x-x--7^9-9-9-9-9---|
 ||---11--11----9-9----x-x-x-x-x-x--9-9-9-9-9-9---|
 ||-----------------------------------------------|
 ||-----------------------------------------------|
 ||-----------------------------------------------|

[A] [\ / \ / \ ] [A] 
 
 ---4^^11-11-11-11-11---9----|
 ---5^^9--9--9--9--9----9----|
 ----------------------------|
 ----------------------------|
 ----------------------------|
 ----------------------------|

[Soft] 
 
 ----------------------||
 ---11-----(11)--------||
 ---11-----(12)--------||
 ---13-----(13)--------||
 ----------------------||
 ----------------------||
 ----------------------------------------------------------------------

END.
WRITTED: 30/01/2007
http://www.myspace.com/jordanpruitt
PLEASE PLEASE PLEASE vote for her at Disney Radio WebSite, thanks !!!

Important: The song above is NOT stored on the Chordie server. The original song is hosted at www.guitartabs.cc. Chordie works as a search engine and provides on-the-fly formatting. Chordie does not index songs against artists'/composers' will. To remove this song please click here.

Text color:
Chord color:
Chord grids: 
Font size:    
Page size: 

A
Rate #1 of 4 versions

Login - add to songbook

SHARE PAGE  



You need to log in to post comments