Guitar Tabs, Chords and Lyrics
Login is temporarily disabled for some users. Do not panic. Will be back in an hour or two. DO NOT REREGISTER!!


It Could Have Been You  Journey

It Could Have Been You - Journey
Raised On Radio (1986)
Brief statement: I tabbed this song out by ear so If anyone views this song, please be
and give your opinion on it with a rate. Really great song...love the meaning to it!!
and God Bless!
(Intro)
 
 e |---------------------------------------------------------------|
 b |---------------0h3vvv-----------------------------------0h3vvv-|
 g |-4-4p2-4-2-4-2--------4--4p2-4-2------------4p2-4-2-4-2--------|
 d |---------------------------------4v--2v--0---------------------|
 a |---------------------------------------------------------------|
 E |---------------------------------------------------------------|

(Intro cont.)
 
 e |--------------------|
 b |--------------------|
 g |4--4p2-4-2----------| x2
 d |------------4v--2v--|
 a |--------------------|
 E |--------------------|

(Verse)
 
 e |------------------------------------------|
 b |-------------0h3vvv-----------------------|
 g |4p2-4-2-4-2----------4--4p2-4-2-----------| x4
 d |--------------------------------4v--2v--0-|
 a |------------------------------------------|
 E |------------------------------------------|

(Fill after 4th time above)
 
 e |-----------2----|
 b |-----------2--2-|
 g |4-4p2-4-2--2--2-|
 d |-----------4--2-|
 a |-----------4--0-|
 E |-----------2----|

[F#m] [A]  
(Chorus)
 
 e |2~~~-----------------------------2-----|
 b |3~~~-----------------5~---3~-----3---2-|
 g |2~~~-----------------6~---2~-----4---2-|
 d |0~~~-----------------7~---4~-----4---2-|
 a |---------------------------------2---0-|
 E |---------------------------------2-----|

(Se[D]cond time: DON"T PLAY BM AND A A[BM]T THE[A] END!)
(Fill during Chorus)
 
 e |---------------|
 b |3har-2har------|
 g |----------2har-|
 d |---------------|
 a |---------------|
 E |---------------|

(Verse#2)
 
 e |------------------------------------------|
 b |--------------0h3vvv----------------------|
 g |4-4p2-4-2-4-2--------4--4p2-4-2-----------| x 1 then play (Verse) x 4
 d |--------------------------------4v--2v--0-|
 a |------------------------------------------|
 E |------------------------------------------|

(Fill after 4th time above)
 
 e |-----------2----|
 b |-----------2--2-|
 g |4-4p2-4-2--2--2-|
 d |-----------4--2-|
 a |-----------4--0-|
 E |-----------2----|

[F#m] [A]  
(Chorus) x 2
(Second time: DON"T PLAY BM AND A AT THE END!)
(Solo)
 
 e |----------10---------------12------------------10---------|
 b |-----12h14------------15p12------------15-12/14-----------|
 g |--/14--------12-12vv----------14-14vv-------------12-12vv-|
 d |----------------------------------------------------------|
 a |----------------------------------------------------------|
 E |----------------------------------------------------------|
 e |---------------------14-15p14--------------17-17-----15-14----|
 b |15p12-15bv---15-15h17-----------17-17-15-17---------x------17-|
 g |---------------------------------------------------x----------|
 d |--------------------------------------------------x-----------|
 a |--------------------------------------------------------------|
 E |--------------------------------------------------------------|

rake-|
 
 e |14-15p14----------------------------------|
 b |----------17-15-14bv----------------------|
 g |------------------------------------------|
 d |------------------------9-7-5v------------|
 a |--------------------------------7-7-5-4v--|
 E |------------------------------------------|

(Chorus Fill)
 
 e |---------------------------------|
 b |---------------0h3vvv------------|
 g |-4-4p2-4-2-4-2--------4--4p2-4-2-|
 d |---------------------------------|
 a |---------------------------------|
 E |---------------------------------|

(Verse during Chorus) x 2
(Ride-out with Verse) x ?? (Until you are satisfied)
Legend:
h=Hammer on
p=Pull off
v or vv=Vibrato
/=slide
har=Harmonic(Artificial of Natural)
****The Chorus might not have a guitar part. It might be played on Keyboard, as well as
Harmonic Fill during the Chorus. PLEASE RATE THIS TAB****

Important: The song above is NOT stored on the Chordie server. The original song is hosted at www.guitartabs.cc. Chordie works as a search engine and provides on-the-fly formatting. Chordie does not index songs against artists'/composers' will. To remove this song please click here.

Text color:
Chord color:
Chord grids: 
Font size:    
Page size: 

A Bm D F#m
Rate #1 of 2 versions

Login - add to songbook

SHARE PAGE  



You need to log in to post comments