Guitar Tabs, Chords and Lyrics
Login is temporarily disabled for some users. Do not panic. Will be back in an hour or two. DO NOT REREGISTER!!


The Eyes of a Woman  Journey

Title: The Eyes of a Woman
Album: Raised on Radio
Tuning: (low to high) E A D G B E
Tabbed by: FireReaverX
Intro
[D] [F] [C] [Am7]  
 
 E|-----------------------------------17~------------15~---------------|
 B|-15~----------------------------------------------------------------|
 G|------------------14~-----------------------------------------------|
 D|--------------------------------------------------------------------|
 A|--------------------------------------------------------------------|
 E|--------------------------------------------------------------------|

[D] [F] [C]  
 
 E|-----------------------------------15~------------------------------|
 B|-15~----------------------------------------------------------------|
 G|------------------14~-----------------------------------------------|
 D|--------------------------------------------------------------------|
 A|--------------------------------------------------------------------|
 E|--------------------------------------------------------------------|

Verse
[D] [F] [C] [Am7]  
 
 E|-2---------------1---------------0---------------0--------------|
 B|-3-----3---------1-----1---------1-----1---------1-----1--------|
 G|-2---------------2---------------0-----------0---0-----------0--|
 D|-0---------------3---------------2---------------2--------------| 4x
 A|-----------------3---------------3---------------0--------------|
 E|-----------------1----------------------------------------------|

Pre-Chorus
[Bb] [Gm7] [C] [Am7] [D]  
 
 E|-1---------------3---------------0---------------0---------------2-------------|
 B|-3---------------3---------------1---------------1---------------3-------------|
 G|-3---------------3---------------0---------------0---------------2-------------|
 D|-3---------------3---------------2---------------2---------------0-------------|
 A|-1---------------5---------------3---------------0-----------------------------|
 E|-----------------3-------------------------------------------------------------|

Chorus
[Bb] [C] [Gm] [Dm]  
 
 E|-1---------------0---------------3------------------------------|
 B|-3-----3---------1-------1-------3-----6-----5---6--------------|
 G|-3-----------3---0---------------3---------------7--------------|
 D|-3---------------2---------------5---------------7--------------|
 A|-1---------------3---------------5---------------5--------------|
 E|---------------------------------3------------------------------|

| 2x
(lead guitar) |
 
 E|---------------------------------15----13----12-----------------|
 B|-------------------------------------------------17~------------|
 G|----------------------------------------------------------------|
 D|----------------------------------------------------------------|
 A|----------------------------------------------------------------|
 E|----------------------------------------------------------------|

[Bb] [C]  
 
 E|-1---------------0----------------------------------------------|
 B|-3-----3---------1----------------------------------------------|
 G|-3-----------3---0----------------------------------------------|
 D|-3---------------2----------------------------------------------|
 A|-1---------------3----------------------------------------------|
 E|----------------------------------------------------------------|

Verse
Pre-Chorus
Chorus 2x
Solo
[D] [F] [C] [Am7]  
 
 E|----------------------17~--17~-------15h17-15~-----------------------------------------|
 B|------------15~------------------------------------------------------------------------|
 G|-/14~----------------------------------------------------------------------------------|
 D|---------------------------------------------------------------------------------------|
 A|---------------------------------------------------------------------------------------|
 E|---------------------------------------------------------------------------------------|

[D] [F] [C] [Am7]  
 
 E|----------------------17~--17~-------15h17-15~-----------------------------------------|
 B|------------15~------------------------------------------------------------------------|
 G|-/14~----------------------------------------------------------------------------------|
 D|---------------------------------------------------------------------------------------|
 A|---------------------------------------------------------------------------------------|
 E|---------------------------------------------------------------------------------------|

[D] [F] [C] [Am7]  
 
 E|---------------------------------------------------------------------------------------|
 B|-13--------------------13---15-13------------13------------------13---15-13------------|
 G|--------14-------12-14--------------14-12-14--------14-----12-14--------------14-12-14-|
 D|---------------------------------------------------------------------------------------|
 A|---------------------------------------------------------------------------------------|
 E|---------------------------------------------------------------------------------------|

[D] [F] [C]  
 
 E|-------------------------15/17~------------15h17-15~-----------------------------------|
 B|-------------13/15~--------------------------------------------------------------------|
 G|-12/14~--------------------------------------------------------------------------------|
 D|---------------------------------------------------------------------------------------|
 A|---------------------------------------------------------------------------------------|
 E|---------------------------------------------------------------------------------------|

Chorus 2x
Outro (repeat to fade)
[Bb] [C] [Gm] [Dm]  
 
 E|---------------------------------------------------------------------------------------|
 B|-13--------------------13---15-13------------13------------------13---15-13------------|
 G|--------14-------12-14--------------14-12-14--------14-----12-14--------------14-12-14-|
 D|---------------------------------------------------------------------------------------|
 A|---------------------------------------------------------------------------------------|
 E|---------------------------------------------------------------------------------------|

==============
| / slide
| h hammer-on
| ~ vibrato
==========================================================================================

Important: The song above is NOT stored on the Chordie server. The original song is hosted at www.guitartabs.cc. Chordie works as a search engine and provides on-the-fly formatting. Chordie does not index songs against artists'/composers' will. To remove this song please click here.

Text color:
Chord color:
Chord grids: 
Font size:    
Page size: 

Am7 Bb C D Dm F Gm Gm7
Rate #0 of 4 versions

Login - add to songbook

SHARE PAGE  



You need to log in to post comments