Guitar Tabs, Chords and Lyrics
Major upgrade!! After one year development the new version of Chordie is now online! Please give feedback.


Tu guardián  Juanes

 
 ------------------------

Juanes
Tu Guardián
Mi Sangre
 
 ------------------------

Escrito por: TMONEYthe1st
E-mail: trevor.b.thompson1@gmail.com
Tuning: Standard (E A D G B E)
Me encanta esta canción y me casé de buscar 'tabs' correctos así
los escribí. No estoy segurísimo de algunas partes pero este abajo
te da ayuda en aprenderla, y los partes que piensan que no son correctos, puedes arreglarlas.
Si tienes una versión mejor, mándemelo por favor.
Los acordes son correctos pero creo que él usa algunas variaciones
diferentes que estos. La mayoría de la canción es estos tres acordes:
Love this song, couldn't find anything real accurate so elsewhere I wrote what I've got.
I'm unsure about some parts, but the majority is correct. It's in C-Major, so if
you think my solo is off, just mess around in that
key (C D E G F A B C) until you get it to sound like you think it should.
If there are parts that are inaccurate here that you figure out, please
send them to me.
The chords themselves are correct but in parts I'm pretty sure he uses different variations.
You'll use these 3 chords throughout
the majority of the song:
Cmaj Fmaj7/C(?) Gmaj
 
 |--0--| |--0--| |----0---|
 |--1--| |--1--| |-3(1,0)-|
 |--0--| |--2--| |----0---|
 |--2--| |--3--| |----0---|
 |--3--| |--3--| |----2---|
 |--x--| |--x--| |----3---|

Intro: Cmaj, Fmaj7/C, Cmaj:
 
 |-0----0---0~-------0~---0--|
 |-1----1---1~-------1~---1--|
 |-0----2---0~----0--2p0--0--|
 |-0h2--3---2-0h2----3~---2--|
 |-3----3---3~-------3~---3--|
 |-x----x---x--------x----x--|

[C]Duérmete [F]pronto mi [C]amor, [F]que la noche ya [C]llegó
[C]y cierra tus [F]ojos que [C]yo [F]de tus sueños cu[C]idaré
[C]siempre a tu l[F]ado estar[C]é, [C]y tu g[F]uardián yo ser[C]é
[Gmaj]toda la vida
Despues del primer verso:
 
 |-------------------------------|
 |---9--9--10--10--12--12--12----|
 |----10-----12------14--14--14--|
 |-------------------------------|
 |-------------------------------|
 |-------------------------------|
 |-------------------------------------------------|
 |-9--9--10--10--10/12~---12-10-9---7-7h9-9h10-----|
 |--10-----12 ---12/14~------------------------10--|
 |-------------------------------------------------|
 |-------------------------------------------------|
 |-------------------------------------------------|

Durante
Esta noche te prometo... : Gmaj-Fmaj/C-Cmaj
Solo:
 
 |--------------------------------------------------|
 |--------------------------------------------------|
 |-------9-12--12h14-12~---------9-12--9h10-9~ -----|
 |-10-12-------------------10-12--------------------|
 |--------------------------------------------------|
 |--------------------------------------------------|
 |--------------------------------------------------------------|
 |--------------------------------------------------------------|
 |-10p9p7-10p9p7-10p9p7-10p9p7--12p10p9-12p10p9-12p10p9-12p10p9-|
 |--------------------------------------------------------------|
 |--------------------------------------------------------------|
 |--------------------------------------------------------------|
 |---//12-10-8~---8------------------------------------|
 |------------------8-------------//13-12-10 ----------|
 |--------------------10-9------------------ 9-9/12 ---|
 |-------------------------10--------------------------|
 |-----------------------------------------------------|
 |-----------------------------------------------------|
 |-----------------------------------------------------|
 |------------------12-12p10p8--13-13p12p10--//15-13~--|
 |--12-14-14p12p10-------------------------------------|
 |-----------------------------------------------------|
 |-----------------------------------------------------|
 |-----------------------------------------------------|

*****************
| / slide up
| \ slide down
| h hammer-on
| p pull-off
| ~ let ring
| + harmonic
| x mute note
*****************

Important: The song above is NOT stored on the Chordie server. The original song is hosted at www.guitartabs.cc. Chordie works as a search engine and provides on-the-fly formatting. Chordie does not index songs against artists'/composers' will. To remove this song please click here.

Text color:
Chord color:
Chord grids: 
Font size:    
Page size: 

C F Gmaj
Rate #1 of 1 versions

Jango Player

Login - add to songbook

SHARE PAGE  



You need to log in to post comments