Guitar Tabs, Chords and Lyrics
Server problems seems to be fixed. Chordie has been experiencing problems with songs disappearing. These issues now seems to be fixed, but still verifying the fix. If you find anything strange, please email admin@chordie.com.


Kaunis ihminen  Juha Tapio

 
 -------------------------------------------------------------------------

KAUNIS IHMINEN ? Juha Tapio
 
 -------------------------------------------------------------------------

Tabbed by: Kengus
Standard tuning
INTRO
[Am]  
 
 e|----------------------|
 B|-------0h1------------|
 G|-----2-----2---2------|
 D|---2---------2--------|
 A|-0---------------0----|
 E|----------------------|

VERSES 1, 3 and 4
[E] [Am]  
 
 e|------------------------------------------------------------------|
 B|-------0-------0-------0-------0--------1-------1-------1-------1-|
 G|-----1-----1---------1-----1----------2-----2---------2-----2-----| x2
 D|---2-----2---2-----2-----2---2------2-----2---2-----2-----2---2---|
 A|----------------------------------0---------------0---------------|
 E|-0---------------0------------------------------------------------|

[G] [C] [E] [F]  
 
 e|------------------------------------------------------------------|
 B|-------0-------0--------1-------1-------0-------0-------1-------1-|
 G|-----0-----0----------0-----0---------1-----1---------2-----2-----|
 D|---0-----0---0------2-----2---2-----2-----2---2-----3-----3---3---|
 A|---------------2--3-----------------------------------------------|
 E|-3--------------------------------0---------------1---------------|

[Dm] [E7] [Fmaj7] [G6]  
 
 e|-------1---------------0---------------0---------------0----------|
 B|-----3-----3---3-------------0---------------1---------------0----|
 G|---2-----2---2-------1-----1---1-----2-----2---2-----0-----0---0--|
 D|-0-----------------0-----0---------3-----3---------0-----0--------|
 A|------------------------------------------------------------------|
 E|-----------------0---------------1---------------3----------------|

[Am]  
 
 e|----------------------|
 B|-------0h1------------|
 G|-----2-----2---2------|
 D|---2---------2--------|
 A|-0---------------0----|
 E|----------------------|

VERSE 2
[E] [Am]  
 
 e|------------------------------------------------------------------|
 B|-------0-------0-------0-------0-------0h1--------------1-------1-|
 G|-----1-----1---------1-----1---------2-----2---2------2-----2-----| x2
 D|---2-----2---2-----2-----2---2-----2---------2------2-----2---2---|
 A|---------------------------------0----------------0---------------|
 E|-0---------------0------------------------------------------------|

[G] [C] [E] [F]  
 
 e|------------------------------------------------------------------|
 B|-------0-------0--------1-------1-------0-------0-------1-------1-|
 G|-----0-----0----------0-----0---------1-----1---------2-----2-----|
 D|---0-----0---0------2-----2---2-----2-----2---2-----3-----3---3---|
 A|---------------2--3-----------------------------------------------|
 E|-3--------------------------------0---------------1---------------|

[Dm] [E7] [Fmaj7] [G6]  
 
 e|-------0h1-------------0---------------0---------------0----------|
 B|-----3-----3---3-------------0---------------1---------------0----|
 G|---2---------2-------1-----1---1-----2-----2---2-----0-----0---0--|
 D|-0-----------------0-----0---------3-----3---------0-----0--------|
 A|------------------------------------------------------------------|
 E|-----------------0---------------1---------------3----------------|

[Am]  
 
 e|----------------------|
 B|-------0h1------------|
 G|-----2-----2---2------|
 D|---2---------2--------|
 A|-0---------------0----|
 E|----------------------|

INTRO
[Am]  
VERSE 1
Hän tuhisee ja [E]tuhlaa pienokaisen tuoksua[Am]an
uusi voima, kaikki v[E]oipa, viattomuus otsal[Am]laan
Pian hän maasta n[G]ousee, löytää avo[C]sylin
kaiken mitä t[E]arjoo lyhyt lumo lapsuu[F]den
Katson häntä [Dm]hiljaa, tiedä muuta [E7]en
on kaunis ihmi[Fmaj7]nen, [G6] on sentään kaunis ihmi[Am]nen
VERSE 2
Koulun piha t[E]äyttyy niin kuin aina aamui[Am]sin
hän seisoo vasten kylmää s[E]einää niin kuin teki eilen[Am]kin
Mykkänä hän s[G]euraa kuinka ilka[C]moiden
toiset ohi k[E]ulkee suureen tulevaisuu[F]teen
Koulun kylmä [Dm]seinä, soitto kello[E7]jen
on kaunis ihmi[Fmaj7]nen, [G6] on sentään kaunis ihmi[Am]nen
VERSE 3
Hän nojaa linja-[E]auton huurtuneeseen ikku[Am]naan
taas lienee pitkä [E]työläs päivistä yksi taka[Am]naan
Unelmiaan s[G]euras otti niistä [C]vastuun
täyttää tehtä[E]vänsä rientäessä vuosi[F]en
Pysäkille [Dm]valoon katulamppu[E7]jen
kaunis ihmi[Fmaj7]nen, [G6] on sentään kaunis ihmi[Am]nen
VERSE 4
Vielä yksi autok[E]uorma tänään viedään kaupun[Am]kiin
kun lapsista myös n[E]uorin omilleen jo muutet[Am]tiin
Äkkiä on [G]niin talo käynyt hiljai[C]seksi
äsken vielä r[E]aikui naurut kipu rakkau[F]den
Käteen toisen [Dm]tarttuu hetken viipy[E7]en
kaunis ihm[Fmaj7]inen, [G6] on sentään kaunis ihmi[Am]nen
VERSE 5
[E7] [Amadd9] [E7] [Amadd9]  
 
 e|-------0-------0-----0-------0----------0-------0-----0-------0-----|
 B|-------0-------0-------0-------0--------0-------0-------0-------0---|
 G|-----7-------7---------5-------5------7-------7---------5-------5---|
 D|---6-------6-------7-------7--------6-------6-------7-------7-------|
 A|-----------------0-------0------------------------0-------0---------|
 E|-0-------0------------------------0-------0-------------------------|

[G] [C] [E] [F]  
 
 e|------------------------------------------------------------------|
 B|-------0-------0--------1-------1-------0-------0-------1-------1-|
 G|-----0-----0----------0-----0---------1-----1---------2-----2-----|
 D|---0-----0---0------2-----2---2-----2-----2---2-----3-----3---3---|
 A|---------------2--3-----------------------------------------------|
 E|-3--------------------------------0---------------1---------------|

[Dm] [E7] [Fmaj7] [G6]  
 
 e|-------0h1-------------0---------------0---------------0----------|
 B|-----3-----3---3-------------0---------------1---------------0----|
 G|---2---------2-------1-----1---1-----2-----2---2-----0-----0---0--|
 D|-0-----------------0-----0---------3-----3---------0-----0--------|
 A|------------------------------------------------------------------|
 E|-----------------0---------------1---------------3----------------|

[Am]  
 
 e|---------------------------------------0---------------0----------|
 B|-------0h1-------------0h1-------------------1---------------0----|
 G|-----2-----2---2-----2-----2---2-----2-----2---2-----0-----0---0--|
 D|---2---------2-----2---------2-----3-----3---------0-----0--------|
 A|-0---------------0------------------------------------------------|
 E|---------------------------------1---------------3----------------|

[Am]  
 
 e|----------------------|
 B|-------0h1------------|
 G|-----2-----2---2------|
 D|---2---------2--------|
 A|-0---------------0----|
 E|----------------------|

VERSE 5
Iltauutiset ja s[E7]äätä, kello käy jo yhdek[Amadd9]sää
viime vierailusta v[E7]iikko, koskahan ne kerk[Amadd9]iää
Pettymys ja r[G]iemu, haaveetkin jo m[C]aaksi
tyrskyn jälkeen h[E]aaksi tyvenessä seisah[F]taa
Kuvat lastenl[Dm]asten kuvat uutis[E7]ten
kaunis ihmi[Fmaj7]nen, [G6] on sentään kaunis ihmi[Am]nen
Kaunis ihmi[Fmaj7]nen, [G6] kaunis ihmi[Am]nen.
=========================================================================

Important: The song above is NOT stored on the Chordie server. The original song is hosted at www.guitartabs.cc. Chordie works as a search engine and provides on-the-fly formatting. Chordie does not index songs against artists'/composers' will. To remove this song please click here.

Text color:
Chord color:
Chord grids: 
Font size:    
Page size: 

Am Amadd9 C Dm E E7 F Fmaj7 G G6
Rate #1 of 2 versions

Jango Player

Login - add to songbook

SHARE PAGE  



You need to log in to post comments