Guitar Tabs, Chords and Lyrics
Server problems seems to be fixed. Chordie has been experiencing problems with songs disappearing. These issues now seems to be fixed, but still verifying the fix. If you find anything strange, please email admin@chordie.com.


Ghosts in Empty Houses  Jukebox the Ghost

Note: The solo isn't perfect, but it should be pretty close. If you have any
suggestions I would love to hear them.
Verse 1
I[A]n t[A2]his co[E]untry [C#m]at any gi[B]ven tim[E]e
There are t[A]wo million emp[A2]ty house[E]s
And [C#m]one of them once w[B]as mi[E]ne
There were [A]twelve million spiri[A2]ts drift[E]ing
In [C#m]twelve million em[B]pty ro[E]oms
Waving their ghostly a[A]rms at the stars
[A2]And howling sad songs by the l[C#m]ight of a cresc[B]ent mo[E]on
Yeah they c[B]law at the air and they s[C#m]cream
But they don't make a so[A]und
Should've exer[B]cised the demons and their sec[C#m]rets
While they were 'ro[A]und
Chorus
[E]Don't you think it's funny how qui[B]ckly things can turn aro[A]und
[E]All our lives are drifting like gh[B]osts inside and empty ho[A]use
[B]Everything is falling to pi[C#m]eces and its just as w[A]ell
[B]Because every little piece of heaven br[C#m]ings a little piece of he[A]ll
Verse 2 (Same as Verse 1)
Repeat Chorus
Solo
 
 e--------------11-11-11p9-11br-9--------------------|
 b-12-12-12br---------------------12-10-9------------|
 g------------9---------------------------11-9----9--| X2
 d---------------------------------------------11----|
 a---------------------------------------------------|
 E---------------------------------------------------|
 e----------------------------------------------------------------------------|
 b-12-12-12p9-12br-12-9-9---------------12br-----------------------------14---|
 g------------------------11-11/9---------------6-8-6-8-9-8-9-11-9-11-13------|
 d--------------------------------------------7-------------------------------|
 a----------------------------------------------------------------------------|
 E----------------------------------------------------------------------------|

Outro
So you might f[A]ind yourself drifting
[A]Like a ghosts inside em[A]pty house after em[A]pty house
Looking[A] for someone but la[B]tely finding not a soul to [E]tell

Important: The song above is NOT stored on the Chordie server. The original song is hosted at www.guitartabs.cc. Chordie works as a search engine and provides on-the-fly formatting. Chordie does not index songs against artists'/composers' will. To remove this song please click here.

Text color:
Chord color:
Chord grids: 
Font size:    
Page size: 

A A2 B C#m E
Rate #0 of 2 versions

Login - add to songbook

SHARE PAGE  




You need to log in to post comments