Guitar Tabs, Chords and Lyrics
Major upgrade!! After one year development the new version of Chordie is now online! Please give feedback.


You Look Good in My Shirt  Keith Urban

 
 -------------------------------------------------------------------------------

YOU LOOK GOOD IN MY SHIRT - Keith Urban
 
 -------------------------------------------------------------------------------

Tabbed by: Barry Miles
Great tune. I did my best to add all the little fills, there are a few
missing, but this should keep you busy enough. I only have the version off
the Golden Road CD, and I know the radio one is a little different, so I
can't really add it until I get a copy of the radio stuff. Either way,
enjoy.
Intro:
Guitar 1 (electric, light distortion):
*do these scratches on the 12th fret to give a little harmonic sound
 
 e|----------------------------------|
 B|------------3-3---3---3--3--3-3/--|
 G|--------0---0-2b--2-0-2b-2b-2-0---|
 D|--------0h2-----------------------|
 A|-X--------------------------------|
 E|-X-12\----------------------------|

(band comes in)
Guitar 2 (rhythm electric) & 3 (acoustic):
Gui[Cadd9]tar 1:[G] [Dsus4] [Em7]
 
 e|-----------------------------------------------------------|
 B|-------3-3---3-3-3--3--3-3----------3-3------3------(/10)--|
 G|---0---0-2b--2-0-2b-2b-2-0------0---0-2b-r-0-2b-----(/9-)--|
 D|---0h2--------------------------0h2------------------------|
 A|-----------------------------------------------------------|
 E|-----------------------------------------------------------|

Guitar 2 & 3:
Gui[Cadd9]tar 1:[G] [Dsus4] [Cadd9] [G]
 
 e|-----------------------------------------------------------|
 B|-------3-3---3-3-3--3--3-3----------3-3--------------------|
 G|---0---0-2b--2-0-2b-2b-2-0------0---0-2b-r-0---------------|
 D|---0h2--------------------------0h2----------/5------------|
 A|-----------------------------------------------------------|
 E|-----------------------------------------------------------|

Verse (Guitar 3):
When you [C]walked up behind me and [G]covered my eyes
And [D]whispered in my ear, guess [Em]who
C G*
I rattled off names like I really didn't know
But [D]all along I [C]knew it [G]was you
*Guitar 1
[(G)] [(D)] [(C)] [(G)]  
 
 e|------------------------------------3---------------------|
 B|-----3--------------------------------3-------------------|
 G|-----0--0-------------------------------2b-r--0---0-------|
 D|------------------------------------------------2---------|
 A|--------------5--------------------------------------2/3--|
 E|-3--------3/5---------------------------------------------|

Guitar 3:
And, the [C]longer we talked, the [G]more we laughed
And [D]wondered why we didn't [Em]last
It had [C]been a long time, but [G]later last night
[D]Baby, we [C]caught up real [G]fast
Guitar 1:
[(C)] [(G)] [(D)] [(Em)]  
 
 e|---------------------------------------------------|
 B|-----------------3---------3---------3-----3-------|
 G|-----------------0---------2-------0-----0---------|
 D|----------5--------------------4/5-----4-----2-----|
 A|-(3)---/5---------------5----------------------2/3-|
 E|-------------3------3/5----------------------------|

( Tab from: http://www.guitartabs.cc/tabs/k/keith_urban/you_look_good_in_my_shirt_tab_ver_3.html )
[(C)] [(G)] [(D)] [(C)] [(G)]  
 
 e|---------------------------------------------------|
 B|---------------------------------------------------|
 G|---------------------------------------------------|
 D|---------------------------------------------------|
 A|-(3)------------5-----------------5-5h7-5----------|
 E|--------3---3/5---------------3/5---------5h7-5----|

Chorus (Guitar 2 & 3):
[Cadd9] And may[Dsus4]be it's a [G]little too [G/F#]early
To [Em7]know if this is gonna [Cadd9]work
[Cadd9] All I know is [G/B]you're sure looking
[Em7] Good [Dsus4]in my s[G]hirt
Guitar 1:
[(Cadd9)] [(Dsus4)] [(G)] [(G/F#)] [(Em7)] [(Cadd9)]  
 
 e|-----3-------3-------3-------3-------3-------3-----------3------|
 B|-----3-------3-------3-------3-------3-------3-------3---3------|
 G|---0---0---2---2-0-0---0---0---0---0---0---0-------0---0--------|
 D|---------0---------------4-------2------------------------------|
 A|-3---------------------------------------2-----2/3---------2--2/|
 E|----------------------------------------------------------------|

[(Cadd9)] [(G/B)] [(Em7)] [(Dadd9)(G)]  
 
 e|-----3---3---------------3------------------------------3-------|
 B|-----3---3-----------3---3--------------------------3---3-------|
 G|---0---0---0-------0---0----------------------------0-0---0-----|
 D|-------------0------------------------------------0---------0---|
 A|-3-------------3\2-------------5/7~------5~---------------------|
 E|---------------------------3/5------------------3---------------|

Intro (without first part)
Verse 2:
Well now I'm not saying that we solved overnight
Every way that we went wrong
Oh, but what I'm seeing I'd sure love seeing
Every morning from now on
Chorus
Solo:
Guitar 2 & 3:
Gu[Em7]itar 1:[G]
 
 e|---------------------------------------------------------------------------|
 B|------3-3--3--3--3--3------3-----------5-----------------------------------|
 G|--0---0-2b-2b-2b-2b-2b-r-0-2b-----/7------2br0---0-2b-0-0---------12-------|
 D|--0h2------------------------------------------2-------2--5/--/14----14----|
 A|---------------------------------------------------------------------------|
 E|---------------------------------------------------------------------------|

[Em7] [Cadd9] [Dadd9]  
 
 e|----------------------------0---0------------------------------------------|
 B|------12--------------7br-5---3-----------------8p0-7p0-5p0-3p0-1p0--------|
 G|-14b-----14br-12---12-------------2/4-0---0--/9---------------------2p0----|
 D|----------------14----------------------2----------------------------------|
 A|---------------------------------------------------------------------------|
 E|---------------------------------------------------------------------------|

[(Dadd9)]  
 
 e|---------------------------|
 B|---------------------------|
 G|-2br-0-2b-0---0------------|
 D|------------2--------------|
 A|----------------------5-8b-|
 E|----------------3-5/7------|

Before Last Chorus (Guitar 2):
[Cadd9] And maybe it's a [G]little too early
To [Em7]know if this is gonna [Cadd9]work[G/B]
[Cadd9] All I know is [G/B]you're sure looking
(End like regular chorus)
Good in my shirt
Chorus (repeat last line)
Intro until fade
| / slide up
| \ slide down
| h hammer-on
| p pull-off
| ~ vibrato
| + harmonic
| x Mute note
===============================================================================

Important: The song above is NOT stored on the Chordie server. The original song is hosted at www.guitartabs.cc. Chordie works as a search engine and provides on-the-fly formatting. Chordie does not index songs against artists'/composers' will. To remove this song please click here.

Text color:
Chord color:
Chord grids: 
Font size:    
Page size: 

C Cadd9 D Dadd9 Dsus4 Em Em7 G G/B G/F#
Rate #1 of 6 versions

Login - add to songbook

SHARE PAGE  



You need to log in to post comments