Guitar Tabs, Chords and Lyrics
Major upgrade!! After one year development the new version of Chordie is now online! Please give feedback.


Waterloo Sunset  The Kinks

 
 -------------------------------------------------------------------------------

Waterloo sunset - The Kinks
 
 -------------------------------------------------------------------------------

Tabbed by:Dave Burkill
Email:Hermanmunster911@hotmail.com
Tuning:normal
B INTRO RIFF
 
 e|-----------------|-------------------------------------------------------|
 B|-----------------|---------5---------------------------------------------|
 G|-4-44-4----------|-4/6--4-----6--4------------4------------------1-------|
 D|-4-44-4----X7----|------------------4-4/6--4-----6--4--2-2/4--2-----4--2-|
 A|-2-22-2----------|------------------------------------------------------4|
 E|-2-22-2----------|-------------------------------------------------------|

Song Chords
[B] [E] [A] [B7] [F#m] [F#]  
 
 e|-2---0---0---2-----2----2------------------------------------------------|
 B|-4---0---2---4-----2----2------------------------------------------------|
 G|-4---1---2---2-----2----3------------------------------------------------|
 D|-4---2---2---4-----4----4------------------------------------------------|
 A|-2---2---0---2-----4----4------------------------------------------------|
 E|-X---0---X---X-----2----2------------------------------------------------|

Verse 1
[A] Dirty old ri[E]ver, must you keep ro[B7]lling
Flowing in[A]to the night
People so [E]busy, make me feel [B7]dizzy
Taxi light [A]shine so bright.
cHORUS
But i [F#m]don't need no friends
As long as i [E]gaze on waterloo s[B]unset
I am in [A]paradise.
BRIDGE
[A](Sha-[E]la-[F#]la) Every day i look at the world from [B]window
[A](Sha-[E]la-[F#]la) But chilly, chilly is the evening time,
[B]waterloo sunset's fine, (Waterloo sunset's fine)
VERSE 2
Terry meets [E]julie,Waterloo s[B7]tation
Every F[A]riday night
But i am so [E]lazy, don't want to [B7]wander
I stay at [A]home at night
CHORUS 2
But i d[F#m]on't feel afraid
As long as i [E]gaze on waterloo s[B]unset
I am in p[A]aradise
(BRIDGE)
VERSE 3
Millions of p[E]eople swarming like fl[B7]ies round waterloo [A]Underground,
But Terry and J[E]ulie cross over the ri[B7]ver
Where they feel s[A]afe and sound
CHORUS 3
And they [F#m]don't need no friends
As long as they [E]gaze on Waterloo [B]sunset
They are in p[A]aradise
(INTRO RIFF)
CODA
[B7] Waterloo sunsets fine (repeat to fade)
| / slide up
| \ slide down
| h hammer-on
| p pull-off
| ~ vibrato
| + harmonic
| x Mute note

Important: The song above is NOT stored on the Chordie server. The original song is hosted at www.guitartabs.cc. Chordie works as a search engine and provides on-the-fly formatting. Chordie does not index songs against artists'/composers' will. To remove this song please click here.

Text color:
Chord color:
Chord grids: 
Font size:    
Page size: 

A B B7 E F# F#m
Rate #1 of 24 versions

Login - add to songbook

SHARE PAGE  




You need to log in to post comments