Guitar Tabs, Chords and Lyrics
Major upgrade!! After one year development the new version of Chordie is now online! Please give feedback.


All the Way   KISS

 
 -----------

 


 


 transcribed by Mark Perillo (mark@kisstabs.com)


 


 Eb Tuning


 


 Key:


 / = slide up


 \ = slide down


 b = bend (whole step)


 b^ = bend (1/2 step)


 b^^ = bend (1 1/2 steps)


 pb = pre-bend


 r = release-bend


 r^ = release-bend half-step


 h^ = hammer-on


 p^ = pull-off


 ~ = Vibrato


 * = Natural Harmonic




 ** = Artificial Harmonic


 x = Muted String (Palm Muting)


 X = Muted String (Fretboard Muting)


 


 Rhythm Fig. 1


 


 

 
 Eb|----------------------------------------------------|
 Bb|----------------------------------------------------|
 Gb|----------------------------------------------------|
 Db|-------------------5~-------------------------------|
 Ab|--0---5----------------3---0---5-----3--------------|
 Eb|-----------2--3-------------------------------------|

 


 


 Rhytm Fig. 1a


 


 

 
 Eb|----------------------------------------------------|
 Bb|------3---------------------------------------------|
 Gb|--2---2--------------------2---7-----5--------------|
 Db|--2---0------------5~------2---7-----5--------------|
 Ab|--0--------------------3---0---5-----3--------------|
 Eb|-----------2--3-------------------------------------|

 


 


 Rhythm Fig. 1b


 


 

 
 Eb|----------------------------------------------------|
 Bb|----------------------------------------------------|
 Gb|-------------------------------------5--------------|
 Db|-------------------------------------5--------------|
 Ab|-------------------------------------3--------------|
 Eb|----------------------------------------------------|

 


 


 Rhythm Fig. 2


 


 

 
 Eb|----------------------------------------------------|
 Bb|----------------------------------------------------|
 Gb|----------------------------------------------------|
 Db|-------------------5~---------------------------5~--|
 Ab|--0---5----------------3---0---5--3--0--5----------3|
 Eb|-----------2--3----------------------------2--3-----|

 


 


 end.1


 

 
 Eb|----------------------|-----------------------------|
 Bb|----------------------|-----------------------------|
 Gb|--4-4--4-4---7-7--7-7-|-----------------------------|
 Db|--4-4--4-4---7-7--7-7-|-----------------------------|
 Ab|--2-2--2-2---5-5--5-5-|-0--3~-----------------------|
 Eb|----------------------|-----------------------------|

 


 


 Rhythm Fig. 2a


 


 

 
 Eb|----------------------------------------------------|
 Bb|------3---------------------------------3-----------|
 Gb|--2---2------------------2---7---5---2--2-----------|
 Db|--2---0----------5~------2---7---5---2--0-----5~----|
 Ab|--0------------------3---0---5---3---0------------3-|
 Eb|-----------2--3---------------------------2-3-------|

 


 end.1


 

 
 Eb|----------------------|-----------------------------|
 Bb|----------------------|-----------------------------|
 Gb|--4-4--4-4---7-7--7-7-|----5------------------------|
 Db|--4-4--4-4---7-7--7-7-|-7--5------------------------|
 Ab|--2-2--2-2---5-5--5-5-|-7--3------------------------|
 Eb|----------------------|-5---------------------------|

 


 


 Rhythm Fig. 3


 


 

 
 Eb|----------0-0--0-0-----------------0-0-0--0-0--0-0--|
 Bb|----------0-0--0-0-----------------0-0-0--0-0--0-0--|
 Gb|--9-9-9---9-9--9-9----2-2---2-2----9-9-9--9-9--9-9--|
 Db|--9-9-9---9-9--9-9----2-2-4-2-2-4--9-9-9--9-9--9-9--|
 Ab|--7-7-7---7-7--7-7----0-0-0-0-0-0--7-7-7--7-7--7-7--|
 Eb|--0-0-0---0-0--0-0-----------------0-0-0--0-0--0-0--|

 


 


 end. 1


 

 
 Eb|----------------------|-----------------------------|
 Bb|----------------------|-----------------------------|
 Gb|--4-4--4-4---7-7--7-7-|----5------------------------|
 Db|--4-4--4-4---7-7--7-7-|----5------------------------|
 Ab|--2-2--2-2---5-5--5-5-|-0--3------------------------|
 Eb|----------------------|-----------------------------|

 


 


 Riff. 1


 [ Tab from: bttp://www.guitartabs.cc/tabs/k/kiss/all_tbe_way_tab.btml ] 


 

 
 Eb|----------------------------------------------------|
 Bb|----12---12---12---12---12---12---------------------|
 Gb|----14b--14b--14b--14b--14b--14b-r14p^12------------|
 Db|-----------------------------------------14---------|
 Ab|----------------------------------------------------|
 Eb|----------------------------------------------------|

 


 


 Solo


 


 

 
 Eb|----------------------------------------------------|
 Bb|---20b~-20b~-20b~-------17-17-17--19p^17h^19p^17----|
 Gb|------------------------17-17-17--19p^17h^19p^17----|
 Db|-------------------h^19-----------------------------|
 Ab|----------------------------------------------------|
 Eb|----------------------------------------------------|
 Eb|-20b~-20b-r20p^17-----17----17-17-------------------|
 Bb|------------------20-----20-------20p^17h^20p^17----|
 Gb|----------------------------------------------------|
 Db|----------------------------------------------------|
 Ab|----------------------------------------------------|
 Eb|----------------------------------------------------|
 Eb|----------------------------------------------------|
 Bb|-----20---------------------------------------------|
 Gb|-19b~---r19-17h^19p^17----17---19b-r19p^17----------|
 Db|-----------------------19------------------19-------|
 Ab|----------------------------------------------------|
 Eb|----------------------------------------------------|
 Eb|----------------------------------------------------|
 Bb|--12h^13p^12p^10------------------------------------|
 Gb|-----------------12--11h^12p^11p^9-----7h^8p^7p^5---|
 Db|-----------------------------------12-------------7-|
 Ab|----------------------------------------------------|
 Eb|----------------------------------------------------|
 Eb|----------------------------------------------------|
 Bb|------------------5---5----5-8-5--------------------|
 Gb|------------------7b-----7----------5h^7-7b^^-------|
 Db|--7h^8p^7p^5----------------------------------------|
 Ab|-------------7--------------------------------------|
 Eb|----------------------------------------------------|
 Eb|----------------------------------------------------|
 Bb|-------------------------------------5--------------|
 Gb|--7p^5---5------------5------------5-5--------------|
 Db|-------7-----7p^5h^7------7p^5h^7-------------------|
 Ab|----------------------------------------------------|
 Eb|----------------------------------------------------|
 Eb|----------------------------------------------------|
 Bb|------7--7-h^10p^7---7----10--10h^13p^10------------|
 Gb|------9b-------------9b---12b-----------------------|
 Db|----------------------------------------------------|
 Ab|----------------------------------------------------|
 Eb|----------------------------------------------------|


Important: The song above is NOT stored on the Chordie server. The original song is hosted at www.guitartabs.cc. Chordie works as a search engine and provides on-the-fly formatting. Chordie does not index songs against artists'/composers' will. To remove this song please click here.

This song is displayed as text-only. Transposing and tuning is only available for chordpro-songs.
Rate #1 of 3 versions

Jango Player

Login - add to songbook

SHARE PAGE  



You need to log in to post comments