Guitar Tabs, Chords and Lyrics
Server problems seems to be fixed. Chordie has been experiencing problems with songs disappearing. These issues now seems to be fixed, but still verifying the fix. If you find anything strange, please email admin@chordie.com.


Childhoodâ??s End   KISS

 
 Eb|-------0-----------------0-----------------0---------------------------|
 Bb|-------0-----------------0-----------------0--------------------3------|
 Gb|--------------------5---------5--5--5-4----------4--4--4-2------0------|
 Db|--------------------5---------5--5--5-4----------4--4--4-2------0------|
 Ab|--2--------------2--3---------3--3--3-2----------2--2--2-0------x------|
 Eb|--0--------0--4-------------------------------------------------3------|

 


 


 Rhythm fig 1b


 

 
 Eb|------0----------------------------------------------------------------|
 Bb|------0----------------------------------------------------------------|
 Gb|-----------------------------------------------------------------------|
 Db|-----------------------------------------------------------------------|
 Ab|-----------------2--7----6b^6r---6---------0--2-4b^--4r-0--2r^-2r------|
 Eb|--0--------0--4---------------7---------4-------------------------3----|

 


 


 Rythm fig 1c


 

 
 Eb|-----------------------------------------------------------------------|
 Bb|-----------------------------------------------------------------------|
 Gb|-----------------------------------------------------------------------|
 Db|--2--------------------------------------------------------------------|
 Ab|--2--------------------------------------------------------------------|
 Eb|--0--------------------------------------------------------------------|

 


 


 


 Rythm fig 2a (clean electric, let ring throughout)


 

 
 Eb|--0--0-0--0-0--0-0--0--0-0--0---0------0-0-----------------------------|
 Bb|--0--0-0--0-0--0-0--0--0-0--0---0------0-0-------2--2-2h3-2---2--------|
 Gb|--4--4-4--4-4--4-4--4--4-4--2---1------1-1-------2--2-2-2-2---2--------|
 Db|--4--4-4--4-4--4-4--4--4-4--2---2------2-2-------2--2-2h4-2---2-4p2----|
 Ab|--2--2-2--2-2--2-2--2--2-2--2---2----------4b^4r-0--0-0-0-0---0-----4p2|
 Eb|------------------------------------0----------------------------------|
 Eb|--2---2-2--3-----3----0---0-0--0-0--0-0--0--0-0---0---0-------0-0------|
 Bb|--2---2-2--3-----3----0---0-0--0-0--0-0--0--0-0---0---0-------0-0------|
 Gb|--2---2-2--0-----0----4---4-4--4-4--4-4--4--4-4---2---1-------1-1------|
 Db|--4---4-4--0-----0----4---4-4--4-4--4-4--4--4-4---2---2-------2-2------|
 Ab|--4---4-4--x-----x----2---2-2--2-2--2-2--2--2-2---2---2-----------4b^4r|
 Eb|--2---2-2--3-----3----------------------------------------0------------|
 Eb|------------------------------2---2-2--0-------------------------------|
 Bb|--2---2-2h3-2----2------------2---2-2--0-------------------------------|
 Gb|--2---2-2-2-2----2------------2---2-2--4-------------------------------|
 Db|--2---2-2h4-2----2--4p2-------4---4-4--4-------------------------------|
 Ab|--0---0-0-0-0----0------4p2---4---4-4--2-------------------------------|
 Eb|------------------------------2---2-2----------------------------------|

 


 


 


 Rhythm fig 2b


 


 

 
 Eb|-------------------------------------------------------------3---------|
 Bb|--------------------------2---2-2h3-2----2-------------------3---------|
 Gb|--4-----------------------2---2-2-2-2----2-------------------0---------|
 Db|--4-----------------------2---2-2h4-2----2--4p2-------4------0---------|
 Ab|--2----------------4b^4r--0---0-0-0-0----0------4p2---4------x---------|
 Eb|------------------------------------------------------2------3---------|
 Eb|-----------------------------------------------------------------------|
 Bb|---------------------------2---2-2h3-2----2----------------------------|
 Gb|--4------------------------2---2-2-2-2----2-------------------4--------|
 Db|--4------------------------2---2-2h4-2----2--4p2-------4------4--------|
 Ab|--2-----------------4b^4r--0---0-0-0-0----0------4p2---4------2--------|
 Eb|-------------------------------------------------------2---------------|

 


 


 Rhythm fig 3a


 

 
 Eb|-------0-----------------0----------------0----------------------------|
 Bb|-------0-----------------0----------------0-------------------3--------|
 Gb|--------------------5--------5--5--5-4---------4--4--4-5------2--------|
 Db|--------------------5--------5--5--5-4---------4--4--4-5------0--------|
 Ab|--2--------------2--3--------3--3--3-2---------2--2--2-3---------------|
 Eb|--0--------0--4--------------------------------------------------------|

 


 


 


 Rhythm fig 3b


 

 
 Eb|-----0-----------------------------------------------------------------|
 Bb|-----0-----------------------------------------------------------------|
 Gb|-----------------------------------------------------------------------|
 Db|-----------------------------------------------------------------------|
 Ab|---------------2--7------6b^6r---6---------0--2-2b^--2r------4b^4r-0---|
 Eb|--0------0--4-----------------7---------4-----------------3------------|

 


 


 Rhythm fig 4 (palm mute throughout)


 


 

 
 Eb|-----------------------------------------------------------------------|
 Bb|-----------------------------------------------------------------------|
 Gb|-2--2--2--2--3--3--3--3--4--4--4--4--5--5--5--5--2--2--2--2--3--3--3--3|
 Db|-0--0--0--0--0--0--0--0--0--0--0--0--0--0--0--0--0--0--0--0--0--0--0--0|
 Ab|-0--0--0--0--0--0--0--0--0--0--0--0--0--0--0--0--0--0--0--0--0--0--0--0|
 Eb|-----------------------------------------------------------------------|
 Eb|-----------------------------------------------------------------------|
 Bb|-----------------------------------------------------------------------|
 Gb|--4--4--4--4--5--5--5--5--5--5--5--5-----------------------------------|
 Db|--0--0--0--0--0--0--0--0--0--0--0--0-----------------------------------|
 Ab|--0--0--0--0--0--0--0--0--0--0--0--0-----------------------------------|
 Eb|-----------------------------------------------------------------------|

 


 


 


 Solo


 


 

 
 Eb|-----------------------------------------------------------------------|
 Bb|-----------------------------------------------------------------------|
 Gb|---------------------9~------------8b^--8r--8~---------------------6b^-|
 Db|------------6--7--9-----------------------9---------------6--7--9------|
 Ab|-------7~--------------------------------------------------------------|
 Eb|--0--------------------------------------------------------------------|
 Eb|---------------------------------------------------------------12--12--|
 Bb|-----------------------------------------------------------12----------|
 Gb|----6r----4b^--4r-4b^-4r--------------------9~---------14b-------------|
 Db|-------7------------------6~-------6--7--9-----------------------------|
 Ab|-----------------------------------------------------------------------|
 Eb|-----------------------------------------------------------------------|
 Eb|-11--11~-------------17--17-17-17--17-17-------------------------------|
 Bb|---------16--17--19--20b-------20b-------20b20r17h20p17----17-17b^^r17~|
 Gb|--------------------------------------------------------19-------------|
 Db|-----------------------------------------------------------------------|
 Ab|-----------------------------------------------------------------------|
 Eb|-----------------------------------------------------------------------|

 


 


 Harmony


 


 

 
 Eb|-----------------------------------------17--17------16--16------------|
 Bb|-------------------------------------17--------------------------------|
 Gb|----------------9/-12------------19b-----------------------------------|
 Db|----------6--7---------------------------------------------------------|
 Ab|-----------------------------------------------------------------------|
 Eb|-----------------------------------------------------------------------|

 


 


 


 Riff 1


 


 

 
 Eb|--0-0-0-0-0-0-0-0------------------------------------------------------|
 Bb|--5-5-5-5-5-5-5-5------------------------------------------------------|
 Gb|-----------------------------------------------------------------------|
 Db|-----------------------------------------------------------------------|
 Ab|-----------------------------------------------------------------------|
 Eb|-----------------------------------------------------------------------|


Important: The song above is NOT stored on the Chordie server. The original song is hosted at www.guitartabs.cc. Chordie works as a search engine and provides on-the-fly formatting. Chordie does not index songs against artists'/composers' will. To remove this song please click here.

This song is displayed as text-only. Transposing and tuning is only available for chordpro-songs.
Rate #1 of 1 versions

Login - add to songbook

SHARE PAGE  



You need to log in to post comments