Guitar Tabs, Chords and Lyrics
Major upgrade!! After one year development the new version of Chordie is now online! Please give feedback.


Hate   KISS

 
 Gb|------------------------------------------------------------------|
 Db|------------------------------------------------------------------|
 Ab|------------------------------------------------------------------|
 Db|--0---------------------------------3b----------------------------|

 


 Gradual bend


 


 Rhythm fig. 2


 

 
 Gb|------------------------------------------------------------------|
 Db|------------------------------------------------------------------|
 Ab|------------------------------------------------------------------|
 Db|---3-h5p3p0-5-6-5-0-6-7-6-0-5-6-5---------------------------------|

 


 


 Rhythm fig. 3


 

 
 Gb|------------------------------------------------------------------|
 Db|------------------------------------------------------------------|
 Ab|------------------------------------------------------------------|
 Db|--0----1----2----3------------------------------------------------|

 


 


 


 Rhythm fig. 4a


 

 
 Gb|------------------------------7--7-5h7p5~-------------------------|
 Db|------------3-----------------------------7-5-3-------------------|
 Ab|------5-5-5---5-3-5-5-5-------------------------------------------|
 Db|-0-0---------------------0-0---------------------0--3--3-0--3---3-|
 Gb|-----------------------------------------------------5h7p5---/14~-|
 Db|-----------------0--0--3--0---0--0--5p3-0--0--0-/7-7-------7------|
 Ab|----------------------------3-------------------------------------|
 Db|-0--3--3-0--3--3--------------------------------------------------|
 Gb|------------------------------------------------------------------|
 Db|------------------------------------------------------------------|
 Ab|------------------------------------------------------------------|
 Db|--0----3---3-0--3----3----0----3---3-0--3----3--------------------|

 


 


 


 Rhythm fig. 4b


 

 
 Gb|------------------------------------------------------------------|
 Db|-----------5-3--------------5-3---5-3---5-3-----------------------|
 Ab|------5-5------5--5--5----------5-----5-----5-3-------------------|
 Db|-0-0--------------------0-0---------------------0---3--3-0--3---3-|
 Gb|--------------------------------7--7------5--7p5------------------|
 Db|--------------------------0--0--------5h7--------7----------------|
 Ab|------------------------------------------------------------------|
 Db|--0----3---3-0--3----3--------------------------------------------|

 


 


 [ Tab from: bttp://www.guitartabs.cc/tabs/k/kiss/bate_btab.btml ] 


 

 
 Gb|------------------------10-10-12-12-14~---------------------------|
 Db|--0--0------10-12-12-12-------------------------------------------|
 Ab|-------/12--------------------------------------------------------|
 Db|------------------------------------------0----3---3-0--3----3----|
 Gb|------------------------------------------------------------------|
 Db|------------------------------------------------------------------|
 Ab|------------------------------------------------------------------|
 Db|--0----3---3-0--3----3--------------------------------------------|

 


 


 Rhythm fig. 5


 

 
 Gb|------------------------------------------------------------------|
 Db|------------------------------------------------------------------|
 Ab|------------------------------------------------------------------|
 Db|-5----3---3-5-3-2~---3--5----3---3-5-3-2~---3--0---3---3-0--3---3-|
 Gb|------------------------------------------------------------------|
 Db|------------------------------------------------------------------|
 Ab|------------------------------------------------------------------|
 Db|-0---3---3-0--3---3--5----3---3-5-3-2~---3--5----3---3-5-3-2~---3-|
 Gb|------------------------------------------------------------------|
 Db|------------------------------------------------------------------|
 Ab|------------------------------------------------------------------|
 Db|--8-8-8-8-8-8-8-8-7-7-7-7-7-7-7-7-6-6-6-6-6-6-6-5/----------------|

 


 


 


 Rhythm fig. 6


 

 
 Gb|------------------------------------------------------------------|
 Db|------------------------------------------------------------------|
 Ab|------------------------------------------------------------------|
 Db|-3h5p3p0-0-----3h--5p3p0-6-----3h--5p3p0-0-------3h--5p3p0-2----1-|

 


 


 


 Rhythm fig. 7


 

 
 Gb|------------------------------------------------------------------|
 Db|------------------------------------------------------------------|
 Ab|------------------------------------------------------------------|
 Db|--0---------------------------------------------------------------|


Important: The song above is NOT stored on the Chordie server. The original song is hosted at www.guitartabs.cc. Chordie works as a search engine and provides on-the-fly formatting. Chordie does not index songs against artists'/composers' will. To remove this song please click here.

This song is displayed as text-only. Transposing and tuning is only available for chordpro-songs.
Rate #1 of 1 versions

Jango Player

Login - add to songbook

SHARE PAGE  




You need to log in to post comments