Guitar Tabs, Chords and Lyrics
Server problems seems to be fixed. Chordie has been experiencing problems with songs disappearing. These issues now seems to be fixed, but still verifying the fix. If you find anything strange, please email admin@chordie.com.


Hotter Than Hell   KISS

 
 D|------------------------------------------------------|
 A|------------------------------------------------------|
 F|--2--2-------------7-7--7-----------------------------|
 C|--2--2-------------5-5--5-----------------------------|
 G|--0--0-------------0-0--0------------0h3p0------------|
 D|---------------------------------0h3-------3----------|
 D|------------------------------------------------------|
 A|--------------------------7--7--8---------------------|
 F|--2--2--------------------7--7--7---------------------|
 C|--2--2------5h7-7-7-5h7\--7--7--9---------------------|
 G|--0--0-------------------------------------0h3p0------|
 D|---------------------------------------0h3-------3----|

 


 


 


 Rhythm Fig. 1b


 

 
 D|-------------------3-3--3-----------------------------|
 A|-------------------3-3--3-----------------------------|
 F|--2--2-------------0-0--0------------2h5p2p0----------|
 C|--2--2-------------0-0--0--------2h5------------------|
 G|--0--0-------------0-0--0-----------------------------|
 D|------------------------------------------------------|
 D|--------------------------2--2--3---------------------|
 A|--------------------------3--3--3---------------------|
 F|--2--2--------------------2--2--0----------2h5p2p0----|
 C|--2--2------5h7-7-7-5h7\--0--0--0------2h5------------|
 G|--0--0------------------------------------------------|
 D|------------------------------------------------------|

 


 


 


 Rhythm Fig. 2a


 

 
 D|------------------------------------------------------|
 A|------------------------------------------------------|
 F|--2--2-------------7-7--7-----------------------------|
 C|--2--2-------------5-5--5-----------------------------|
 G|--0--0-------------0-0--0-----------------------------|
 D|------------------------------------------------------|
 < - - - - - - - - 3x - - - - - - - - >
 D|------------------------------------------------------|
 A|-------------------7--7--8----------------------------|
 F|--2----------------7--7--7----------------------------|
 C|--2----------------7--7--9----------------------------|
 G|--0---------------------------------0h3p0-------------|
 D|--------------------------------0h3-------3-----------|

 


 


 


 Rhythm Fig. 2b


 

 
 D|-------------------3-3--3-----------------------------|
 A|-------------------3-3--3-----------------------------|
 F|--2--2-------------0-0--0-----------------------------|
 C|--2--2-------------0-0--0-----------------------------|
 G|--0--0-------------0-0--0-----------------------------|
 D|------------------------------------------------------|
 < - - - - - - - - 3x - - - - - - - - >
 D|-------------------2--2--3----------------------------|
 A|-------------------3--3--3----------------------------|
 F|--2----------------2--2--0----------2h5p2p0-----------|
 C|--2----------------0--0--0------2h5-------------------|
 G|--0---------------------------------------------------|
 D|------------------------------------------------------|

 


 


 


 Rhythm Fig. 3a


 

 
 D|------------------------------------------------------|
 A|------------------------------------------------------|
 F|--2--2-------------7-7--7-----------------------------|
 C|--2--2-------------5-5--5-----------------------------|
 G|--0--0-------------0-0--0-----------------------------|
 D|------------------------------------------------------|
 D|------------------------------------------------------|
 A|--------------------7--7--8---------------------------|
 F|--2--2--------------7--7--7---------------------------|
 C|--2--2--------------7--7--9---------------------------|
 G|--0--0-------------------------------0-3-0------------|
 D|---------------------------------0-3-------3----------|
 D|----------------------3--3------3--3------------------|
 A|----------------------3--3------3--3------------------|
 F|--2--2------2--2------0--0------0--0------------------|
 C|--2--2------2--2------0--0------0--0------------------|
 G|--0--0------0--0--------------------------------------|
 D|----------------------3--3------3--3------------------|
 D|------------------------------------------------------|
 A|--7--7--7--7---------9----9--9----9----9--------------|
 F|--7--7--7--7---------9----9--9----9----9--------------|
 C|--7--7--7--7----7----9----9--9----9----9--------------|
 G|--5--5--5--5----7----7----7--7----7----7--------------|
 D|----------------5-------------------------------------|

 


 


 


 Rhythm Fig. 3b


 

 
 D|-------------------3-3--3-----------------------------|
 A|-------------------3-3--3-----------------------------|
 F|--2--2-------------0-0--0-----------------------------|
 C|--2--2-------------0-0--0-----------------------------|
 G|--0--0-------------0-0--0-----------------------------|
 D|------------------------------------------------------|
 D|--------------------2--2--3---------------------------|
 A|--------------------3--3--3---------------------------|
 F|--2--2--------------2--2--0----------2h5p2p0----------|
 C|--2--2--------------0--0--0------2h5------------------|
 G|--0--0------------------------------------------------|
 D|------------------------------------------------------|
 D|------------------------------------------------------|
 A|------------------------------------------------------|
 F|--2--2------2--2------7--7------7--7------------------|
 C|--2--2------2--2------5--5------5--5------------------|
 G|--0--0------0--0--------------------------------------|
 D|------------------------------------------------------|
 D|------------------------------------------------------|
 A|------------------------------------------------------|
 F|--7--7--7--7----9----9--------------------------------|
 C|--7--7--7--7----7----9--------------------------------|
 G|--5--5--5--5---------7--------------------------------|
 D|--------------------------0---------------------------|

 


 Let ring


 


 Rhythm Fig. 4a (P.M. on open 6th)


 

 
 D|------------------------------------------------------|
 A|--14----14----14-----14-----12----12----12-----12-----|
 F|--14----14----14-----14-----12----12----12-----12-----|
 C|--14----14----14-----14-----12----12----12-----12-----|
 G|--12----12----12-----12-----10----10----10-----10-----|
 D|------------------0------0------------------0------0--|
 D|------------------------------------------------------|
 A|--7----7----7-----7-----2-----------------------------|
 F|--7----7----7-----7-----2-----------------------------|
 C|--7----7----7-----7-----2-----------------------------|
 G|--5----5----5-----5-----0-----------------------------|
 D|---------------0-----0--------------------------------|
 D|------------------------------------------------------|
 A|--14----14----14-----14-----12----12----12-----12-----|
 F|--14----14----14-----14-----12----12----12-----12-----|
 C|--14----14----14-----14-----12----12----12-----12-----|
 G|--12----12----12-----12-----10----10----10-----10-----|
 D|------------------0------0------------------0------0--|
 D|--2--------3--------------------------2--------3------|
 A|--3--------3--------2-----------------3--------3------|
 F|--2--------0--------2-----------------2--------0------|
 C|--0--------0--------2-----------------0--------0------|
 G|--------------------0---------------------------------|
 D|-----------3-----------------------------------3------|

 


 


 


 Rhythm Fig. 4b


 


 

 
 D|------------------------------------------------------|
 A|------------------------------------------------------|
 F|--14----14----14----14----12----12----12----12--------|
 C|--14----14----14----14----12----12----12----12--------|
 G|--12----12----12----12----10----10----10----10--------|
 D|------------------------------------------------------|
 D|------------------------------------------------------|
 A|------------------------------------------------------|
 F|--7----7----7----7----14----14----14----14------------|
 C|--7----7----7----7----14----14----14----14------------|
 G|--5----5----5----5----12----12----12----12------------|
 D|------------------------------------------------------|
 D|------------------------------------------------------|
 A|------------------------------------------------------|
 F|--14----14----14----14----12----12----12----12--------|
 C|--14----14----14----14----12----12----12----12--------|
 G|--12----12----12----12----10----10----10----10--------|
 D|------------------------------------------------------|
 D|--2--------3--------------------------2--------3------|
 A|--3--------3--------2-----------------3--------3------|
 F|--2--------0--------2-----------------2--------0------|
 C|--0--------0--------2-----------------0--------0------|
 G|--------------------0---------------------------------|
 D|-----------3-----------------------------------3------|

 


 


 


 Rhythm Fig. 5


 


 

 
 D|------------------------------------------------------|
 A|------------------------------------------------------|
 F|--12/-14--14--12--14----14----10\-9--7--10----12------|
 C|--12/-14--14--12--14----14----10\-9--7--10----12------|
 G|--10/-12--12--10--12----12----8\--7--5--8-----10------|
 D|------------------------------------------------------|
 D|------------------------------------------------------|
 A|------------------------------------------------------|
 F|--12/-14--14--12--14----14----10\-9--7--12------------|
 C|--12/-14--14--12--14----14----10\-9--7--12------------|
 G|--10/-12--12--10--12----12----8\--7--5--10------------|
 D|------------------------------------------------------|

 


 


 


 Riff 1


 


 

 
 D|------------------------------------------------------|
 A|--15b~------------------------------------------------|
 F|-------------12h14b^^~-------12h14-14~----------------|
 C|------------------------------------------------------|
 G|------------------------------------------------------|
 D|------------------------------------------------------|

 


 


 


 Riff 2


 


 

 
 D|------------------------------------------------------|
 A|----------------------------------------15b---15b~----|
 F|--12h14b^^~------14--12--14--12--14p12----------------|
 C|------------------------------------------------------|
 G|------------------------------------------------------|
 D|------------------------------------------------------|
 D|------------------------------------------------------|
 A|--15-13-15--13--15--15b-r15p13----13h15p13-15b--------|
 F|-------------------------------14---------------------|
 C|------------------------------------------------------|
 G|------------------------------------------------------|
 D|------------------------------------------------------|

 


 


 


 Riff 3


 


 

 
 D|------------------------------------------------------|
 A|------------------------------------------------------|
 F|--7b---7b---7--5--7p5~--------------------------------|
 C|------------------------------------------------------|
 G|------------------------------------------------------|
 D|------------------------------------------------------|

 


 


 


 Riff 4


 


 

 
 D|------------------------------------------------------|
 A|--------------------------------------------17b--17b--|
 F|--------14----16b--16b-r16p14-----14h16p14------------|
 C|--14h16----------------------16-----------------------|
 G|------------------------------------------------------|
 D|------------------------------------------------------|

 


 


 [ Tab from: bttp://www.guitartabs.cc/tabs/k/kiss/botter_tban_bell_tab_ver_3.btml ] 


 

 
 D|------------------------------------------------------|
 A|--17b--r17--17~---------------------------------------|
 F|------------------------------------------------------|
 C|------------------------------------------------------|
 G|------------------------------------------------------|
 D|------------------------------------------------------|

 


 


 


 Riff 5


 


 

 
 D|------------------------------------------------------|
 A|------------------------------------------------------|
 F|--12h14b^^-----12h14b^^--r14-14b^^--------------------|
 C|------------------------------------------------------|
 G|------------------------------------------------------|
 D|------------------------------------------------------|

 


 Pick only once - - >


 


 


 Solo


 


 

 
 D|------------------------------------------------------------------|
 A|-----------------------------------------------------------12-----|
 F|--7p-5~-------------7b---7b---7b---7b-r7p5--------/12--14---------|
 C|--------------7--5-------------------------7~---------------------|
 G|------------------------------------------------------------------|
 D|------------------------------------------------------------------|

 


 (left)


 


 


 

 
 D|------------------------------------------------------------------|
 A|--12b^----12b^--r12----12b^--r12----------------------------------|
 F|----------------------------------14~----14b^^----r14-12h14b^^----|
 C|------------------------------------------------------------------|
 G|------------------------------------------------------------------|
 D|------------------------------------------------------------------|
 D|------------------------------------------------------------------|
 A|------------------------------------------------------------------|
 F|--12h14b^^--r14-14b^^---r14-12h14b^^---r14-14b^^---r14--12h14b^^--|
 C|------------------------------------------------------------------|
 G|------------------------------------------------------------------|
 D|------------------------------------------------------------------|

 


 | |


 | |


 

 
 D|------------------------------------------------------------------|
 A|------------------------------------------------------------------|
 F|-----7---7b----------------r7-----------5h7p5------------12--14---|
 C|----------------------------------------------7-----/14-----------|
 G|------------------------------------------------------------------|
 D|------------------------------------------------------------------|

 


 (right)


 


 

 
 D|------------------------------------------------------------------|
 A|----------------13-15b------15--13--15--15-15b-15b-15b-15b-15b----|
 F|-----------r14----------------------------------------------------|
 C|------------------------------------------------------------------|
 G|------------------------------------------------------------------|
 D|------------------------------------------------------------------|

 


 | |


 | |


 | |


 

 
 D|------------------------------------------------------------------|
 A|--14b^^----r14--12-14b^^--r14-12h14b^^--r14-14b^^-r14-12h14b^^----|
 F|------------------------------------------------------------------|
 C|------------------------------------------------------------------|
 G|------------------------------------------------------------------|
 D|------------------------------------------------------------------|
 D|------------------------------------------------------------------|
 A|--15b-r15p13------13h15b~------r15-15b------r15-------------------|
 F|-------------14---------------------------------------------------|
 C|------------------------------------------------------------------|
 G|------------------------------------------------------------------|
 D|------------------------------------------------------------------|

 


 | |


 | |


 | |


 

 
 D|------------------------------------------------------------------|
 A|--r14-14b^^--r14-12h14b^^---r14-14b--r14-12h14b^^--r14-14b^^-r14--|
 F|------------------------------------------------------------------|
 C|------------------------------------------------------------------|
 G|------------------------------------------------------------------|
 D|------------------------------------------------------------------|
 D|----------------------------------------17------------------------|
 A|-------17-20b----20b-----r20-20b---r20------20b-------r20---------|
 F|--/19-------------------------------------------------------------|
 C|------------------------------------------------------------------|
 G|------------------------------------------------------------------|
 D|------------------------------------------------------------------|

 


 | |


 | |


 | |


 

 
 D|------------------------------------------------------------------|
 A|------------------15b--r15-13h15p13---------------13--15--13------|
 F|--12h14p12----12--------------------14--14b^^---------------------|
 C|-----------14-----------------------------------------------------|
 G|------------------------------------------------------------------|
 D|------------------------------------------------------------------|
 D|--------20b-------------20b-------r20--20b----r20-20b-----r20\----|
 A|--20p17-----------------------------------------------------------|
 F|------------------------------------------------------------------|
 C|------------------------------------------------------------------|
 G|------------------------------------------------------------------|
 D|------------------------------------------------------------------|

 


 | |


 | |


 | |


 

 
 D|------------------------------------------------------------------|
 A|--15--15b--15b--15b--15b--15b---15b----------r15---13\------------|
 F|------------------------------------------------------------------|
 C|------------------------------------------------------------------|
 G|------------------------------------------------------------------|
 D|------------------------------------------------------------------|
 D|------------------------------------------------------------------|
 A|--5---------------------------------------------------------------|
 F|--5----5---7b--------5--------------------------------------------|
 C|-------------------------7---5---5--------------------------------|
 G|-----------------------------------7-5--3--3-----0--0--3----------|
 D|------------------------------------------------------------------|

 


 | |


 | |


 | |


 

 
 D|---17(20)---------20b-------20b---20b--20-17----------------------|
 A|---------------------------------------------20-17-20b-----20--17-|
 F|------------------------------------------------------------------|
 C|------------------------------------------------------------------|
 G|------------------------------------------------------------------|
 D|------------------------------------------------------------------|
 D|------------------------------------------------------------------|
 A|------------------------------------------------------------------|
 F|----------------------5---5-7b--r7p-5-------------------5h7-------|
 C|-------------5--5h6h7---7--------------7--5h-7~-------------------|
 G|--0---3--/7-------------------------------------------------------|
 D|------------------------------------------------------------------|

 


 | |


 | |


 | |


 

 
 D|------20----------------------------------------------------------|
 A|---------17-------------------------------------------------------|
 F|------------19-17-19b-------19b-r19p17----------------------------|
 C|---------------------------------------19-17h19~------------------|
 G|------------------------------------------------------------------|
 D|------------------------------------------------------------------|
 D|------------------------------------------------------------------|
 A|---------------------------------------10--12~---------12b^---r12-|
 F|--7b--------r7-----5h7p5~---------/11-----------------------------|
 C|------------------------------------------------------------------|
 G|------------------------------------------------------------------|
 D|------------------------------------------------------------------|

 


 | |


 | |


 | |


 

 
 D|------------------------------------------------------------------|
 A|--x-5--x-5--x-5--7b^-r7p5-----------------------------------------|
 F|--x-5--x-5--x-5--7b^-r7p5-----------------------------------------|
 C|---------------------------7-5-5h7~-------5h7----5h7-----5h7------|
 G|------------------------------------------------------------------|
 D|------------------------------------------------------------------|
 D|------------------------------------------------------------------|
 A|--12b^--r12--12b^--r12-12b^--r12--12b^--r12--12b^--r12--12b^--r12-|
 F|------------------------------------------------------------------|
 C|------------------------------------------------------------------|
 G|------------------------------------------------------------------|
 D|------------------------------------------------------------------|

 


 | |


 | |


 | |


 

 
 D|------------------------------------------------------------------|
 A|------------------------------------------------------------------|
 F|------------------------------------------------------------------|
 C|--5h7p5------------------------------------------------------5--7-|
 G|--------7--6-5--3~------------0--3----3h5/7---0--3-5p-3--5/7------|
 D|------------------------------------------------------------------|
 D|------------------------------12b---------------------------------|
 A|--12b-r12p10----10-12b-r12p10-------------------------------------|
 F|-------------11---------------------------------------------------|
 C|------------------------------------------------------------------|
 G|------------------------------------------------------------------|
 D|------------------------------------------------------------------|

 


 | (fade out) |


 | |


 | |


 

 
 D|---------------------------5--------------------------------------|
 A|--------------5---5-8-5-8-----8-8p7p5-----------------------------|
 F|--5---5-7-5-7---7-------------------------------------------------|
 C|----7-------------------------------------------------------------|
 G|------------------------------------------------------------------|
 D|------------------------------------------------------------------|


Important: The song above is NOT stored on the Chordie server. The original song is hosted at www.guitartabs.cc. Chordie works as a search engine and provides on-the-fly formatting. Chordie does not index songs against artists'/composers' will. To remove this song please click here.

This song is displayed as text-only. Transposing and tuning is only available for chordpro-songs.
Rate #1 of 6 versions

Login - add to songbook

SHARE PAGE  



You need to log in to post comments