Guitar Tabs, Chords and Lyrics
Server problems seems to be fixed. Chordie has been experiencing problems with songs disappearing. These issues now seems to be fixed, but still verifying the fix. If you find anything strange, please email admin@chordie.com.


It Never Goes Away   KISS

 
 Eb|---------------------------------------------------------------|
 Bb|---------------------------------------------------------------|
 Gb|---------7-----------------------------------------------------|
 Db|-------7---7-6-------------------------------------------------|
 Ab|---------------------------------------------------------------|
 Db|--0------------------------------------------------------------|

 


 Let ring


 


 Rhythm fig. 1b


 

 
 Eb|---------------------------------------------------------------|
 Bb|---------------------------------------------------------------|
 Gb|---------------------------------------------------------------|
 Db|------/7---6---------------------------------------------------|
 Ab|---------------------------------------------------------------|
 Db|--0---/7---6---------------------------------------------------|

 


 


 


 Rhythm fig. 2a


 

 
 Eb|---------------------------------------------------------------|
 Bb|---------------------------------------------------------------|
 Gb|---------7------------------------7----------------------------|
 Db|-------7---7-6------------------7---7-6------------------------|
 Ab|---------------------3-5---------------------------------------|
 Db|--0------------------3-5---0-----------------------------------|

 


 Let ring P.M. Let ring


 


 


 Rhythm fig. 2b


 

 
 Eb|---------------------------------------------------------------|
 Bb|---------------------------------------------------------------|
 Gb|---------------------------------------------------------------|
 Db|------/7---6-----------------/7---6----------------------------|
 Ab|-------------------3-5-----------------------------------------|
 Db|--0---/7---6-------3-5---0---/7---6----------------------------|

 


 P.M.


 


 


 Rhythm fig. 3a


 

 
 Eb|---------------------------------------------------------------|
 Bb|---------------------------------------------------------------|
 Gb|---------------------------------------------------------------|
 Db|---------------------------------------------------------------|
 Ab|------------3--------------------------------------------------|
 Db|--3---0---------6---5----3---0---------------------------------| 

 


 


 


 


 Rhythm fig. 3b


 

 
 Eb|---------------------------------------------------------------|
 Bb|---------------------------------------------------------------|
 Gb|-----------------------------------5---8\--3-------------------|
 Db|---------------------------------------------------------------|
 Ab|------------3----------------------3---6\--1-------------------|
 Db|--3---0---------6---5----3---0---------------------------------|

 


 


 


 Rhythm fig. 4a


 

 
 Eb|---------------------------------------------------------------|
 Bb|---------------------------------------------------------------|
 Gb|--------5---3-----------5---------------5---3------------------|
 Db|--------5---3-----------5---1-----------5---3-----3---5----1---|
 Ab|--0-----3---1-----0-----3---1-----0-----3---1-----3---5----1---|
 Db|--0---------------0---------1-----0---------------3---5----1---|

 


 


 


 Rhythm fig. 4b


 

 
 Eb|---------------------------------------------------------------|
 Bb|-----5h6p5----------------5h6p5----------------5h6p5-----------|
 Gb|-----------7---5--3-------------7---5----------------7---5---3-|
 Db|---------------5--3-----------------5--1-----------------5---3-|
 Ab|---------------3--1-----------------3--1-----------------3---1-|
 Db|--0--------------------0---------------1----0------------------|
 Eb|---------------------------------------------------------------|
 Bb|---------------------------------------------------------------|
 Gb|---------------------------------------------------------------|
 Db|--3---5-----1--------------------------------------------------|
 Ab|--3---5-----1--------------------------------------------------|
 Db|--3---5-----1--------------------------------------------------|

 


 


 


 Rhythm fig. 5


 

 
 Eb|---------------------------------------------------------------|
 Bb|---------------------------------------------------------------|
 Gb|---------------0-----------------------------------------------|
 Db|--0h1p0--------------------------------------------------------|
 Ab|--------0h1h3----3p1p0-----------------------------------------|
 Db|---------------------------------------------------------------|

 


 


 


 Rhythm fig. 6a


 

 
 Eb|-----------------------------------------------------0---------|
 Bb|-------------------------------------------------------3-------|
 Gb|---------------------------------------------------------2-----|
 Db|-------7---6b^6r-----------------7---6b^6r-----------------0---|
 Ab|-------------------------------------------------------------0-|
 Db|--0-------------------------0----------------------------------|

 


 Continue bending Rake


 and releasing


 


 


 


 


 Rhythm fig. 6b


 

 
 Eb|---------------------------------------------------------------|
 Bb|---------------------------------------------------------------|
 Gb|---------------------------------------------------------------|
 Db|---------------------------------------------------------------|
 Ab|---------------------------------------------------------------|
 Db|--0----7---6b^6r---------0----7---6b^6r------6b^/--10b^10r-----|

 


 Continue bending


 and releasing


 


 


 Rhythm fig. 7 (solo)


 

 
 Eb|-------0---0--0-0-----0-----0-0-----------0---0--0-0-----0-----0-------|
 Bb|------/10--8--6-5b^5r-5b^5r-5-5\3--------/10--8--6-5b^5r-5b^5r-5-------|
 Gb|-------------------------------------2---------------------------------|
 Db|-----------------------------------------------------------------------|
 Ab|-----------------------------------------------------------------------|
 Db|--0--------------------------------------------------------------------|
 Eb|--0--0-0-----0-0-0-----0-------------------------------------/13-12----|
 Bb|-/10-8-6h8p6-6-5-3h5p3-3-1-------0----------------------------------10-|
 Gb|---------------------------2h4p2-0----------/5-4----/10-9----/10-9-----|
 Db|-----------------------------------------x-x-----x-x------x-x----------|
 Ab|-----------------------------------------x-x/3-2-x-x/8--7-x-x----------|
 Db|------------------------------------0-3~-------------------------------|

 


 


 


 


 Rhythm fig. 8a


 

 
 Eb|--10-----------------------------------------------------------|
 Bb|--13b------------3-----------------3-----------3----------3----|
 Gb|--------------2-----2-----------0-----0--------0-------2----2--|
 Db|-----------0----------0------0-----------0-----------0--------0|
 Ab|---------------------------------------------------------------|
 Db|--------------------------3-----------------5-----0------------|
 Eb|---------------------------------------------------------------|
 Bb|----------3---------------3------------------------------------|
 Gb|-------2-----2------------0---------5---8\--3/--8\--3/-8\------|
 Db|----0-----------0------0---------------------------------------|
 Ab|--------------------------------12\-3---6\--1/--6\--1/-6\------|
 Db|-2------------------3-----------12\----------------------------|

 


 


 


 


 


 Rhythm fig. 8b


 

 
 Eb|--10-----------8----10-----8p-7--------------------------------|
 Bb|--13b------10--------------8-----------------------------------|
 Gb|-----------9----------------------7------5---8\--3/--8\--3/-8\-|
 Db|---------------------------------------------------------------|
 Ab|-------------------------------------12\-3---6\--1/--6\--1/-6\-|
 Db|-------------------------------------12\-----------------------|

 


 


 


 Riff 1


 

 
 Eb|---------------------------------------------------------------|
 Bb|---------------------------------------------------------------|
 Gb|---------------------------------------------------------------|
 Db|---------------------------------------------------------------|
 Ab|-----------5p3-x-5(3)------------------------------------------|
 Db|---------------------------------------------------------------|

 


 


 


 Riff 2


 


 

 
 Eb|---------------------------------------------------------------|
 Bb|---------------------------------------------------------------|
 Gb|----------/7------9----11------12--14--17--19------------------|
 Db|---------------------------------------------------------------|
 Ab|--0------------------------------------------------------------|
 Db|--0------------------------------------------------------------|
 tremolo pick - - - - - - - - ->


Important: The song above is NOT stored on the Chordie server. The original song is hosted at www.guitartabs.cc. Chordie works as a search engine and provides on-the-fly formatting. Chordie does not index songs against artists'/composers' will. To remove this song please click here.

This song is displayed as text-only. Transposing and tuning is only available for chordpro-songs.
Rate #1 of 3 versions

Login - add to songbook

SHARE PAGE  




You need to log in to post comments