Guitar Tabs, Chords and Lyrics
Major upgrade!! After one year development the new version of Chordie is now online! Please give feedback.


Let Me Go, Rock â??n Roll   KISS

 
 Gb|--2--------------------------------------|
 Db|--------------2--4--2--------------------|
 Ab|-----0--3--4-----------------------------|
 Eb|-----------------------------------------|

 


 


 


 Rhythm Fig. 1b


 

 
 Gb|--2--------------------------------------|
 Db|--------------2--------------------------|
 Ab|-----0--3--4-----0--3--4-----------------|
 Eb|-----------------------------------------|

 


 


 


 Rhythm Fig. 2a


 

 
 Gb|--2--2--4----5----6----------------------|
 Db|-----------------------------------------|
 Ab|-----------------------------------------|
 Eb|-----------------------------------------|

 


 


 Rhythm Fig. 2b


 

 
 Gb|--14\---4----5----6----------------------|
 Db|-----------------------------------------|
 Ab|-----------------------------------------|
 Eb|-----------------------------------------|

 


 


 Rhythm Fig. 3


 

 
 Gb|----------------------7------5-----------|
 Db|-----------------------------------------|
 Ab|--5------5-------------------------------|
 Eb|-----------------------------------------|

 


 


 Rhythm Fig. 4


 

 
 Gb|-----------------------------------------|
 Db|--5---------------3------5-------7-------|
 Ab|---------5-------------------------------|
 Eb|-----------------------------------------|

 


 


 


 Rhythm Fig. 5


 

 
 Gb|-----------------------------------------|
 Db|-----------------------------------------|
 Ab|--0--------0-----------------------------|
 Eb|-----------------------------------------|

 


 


 


 Riff 1


 

 
 Gb|--19-------------------------------------|
 Db|-----------------------------------------|
 Ab|-----------------------------------------|
 Eb|-----------------------------------------|

 


 


 


 Riff 2


 

 
 Gb|--19----14\------------------------------|
 Db|--------------12\------------------------|
 Ab|--------------------12\------------------|
 Eb|-----------------------------------------|

 


 


 


 Riff 3


 

 
 Gb|----14\----------------------------------|
 Db|------------12\--------------------------|
 Ab|-----------------------------------------|
 Eb|-----------------------------------------|

 


 


 


 Riff 4


 

 
 Gb|-----------------------------------------|
 Db|--12\------------------------------------|
 Ab|-----------------------------------------|
 Eb|-----------------------------------------|


Important: The song above is NOT stored on the Chordie server. The original song is hosted at www.guitartabs.cc. Chordie works as a search engine and provides on-the-fly formatting. Chordie does not index songs against artists'/composers' will. To remove this song please click here.

This song is displayed as text-only. Transposing and tuning is only available for chordpro-songs.
Rate #1 of 2 versions

Login - add to songbook

SHARE PAGE  



You need to log in to post comments