Guitar Tabs, Chords and Lyrics
Update 25:10. 13:00. Site is back up running again. Songbooks are recovered. Woring on getting search back up..


Love√Ę??s a Slap in the Face   KISS

 
 G|-------------------------------------------------------|
 D|-------------------------------------------------------|
 A|--4--4--4--4--4--4--4--4--4--2-----4--4--4--4--2-------|
 E|--------------------------------4----------------------|
 G|-------------------------------------------------------|
 D|-------------------------------------------------------|
 A|--2--2--2--2--2--2--2--2----4-----------------2--------|
 E|-------------------------------0--0--2--2--4-----------|
 G|-------------------------------------------------------|
 D|-------------------------------------------------------|
 A|--4--4--2--4--4--4--4--4--4--2-----4--4--4--4--2-------|
 E|--------------------------------4----------------------|
 G|-------------------------------------------------------|
 D|-------------------------------------------------------|
 A|--2--2--2-----2--------2----4--4--4--4--2--------------|
 E|-----------2-----2--4----------------------4-----------|

 


 


 


 Rhythm Fig. 2


 

 
 G|-------------------------------------------------------|
 D|-------------------------------------------------------|
 A|--------------0--0--2--4----4--4--4--2h4-2-------------|
 E|--2--2--4--4--------------------------------4--2-------|
 < - - - - - - - - - - 2x - - - - - - - - - - - >

 


 


 [End] [1]  


 

 
 G|-------------------------------------------------------|
 D|-------------------------------------------------------|
 A|--0--0---------------7--7--7--7--7--7--7--7\-----------|
 E|--------4----2----0------------------------------------|

 


 


 


 [End] [2]  


 

 
 G|-------------------------------------------------------|
 D|-------------------------------------------------------|
 A|--0--0--0--0--0--4--5--7----7--5h7-7--5h7-7--7\--------|
 E|-------------------------------------------------------|

 


 


 


 Rhythm Fig. 3


 

 
 G|-------------------------------------------------------|
 D|-------------------------------------------------------|
 A|---------0h2-----------------------------0--2/---------|
 E|--0--------------------------------0--0----------------|

 


 


 


 Rhythm Fig. 4a


 

 
 G|-------------------------------------------------------|
 D|-------------------------------------------------------|
 A|--4--4--------------2--4--4--4--------------2--4-------|
 E|--------2--2--4--4--------------2--2--4--4-------------|
 G|-------------------------------------------------------|
 D|-------------------------------------------------------|
 A|--0--0----------------4--4--4----------2----4----------|
 E|--------4----2--2--0-----------2----4------------------|
 G|-------------------------------------------------------|
 D|-------------------------------------------------------|
 A|-------------------------------------------------------|
 E|--2--2--2--2--2--2--2--2--5--5--5--5--5--5--5/-17\-----|
 G|-----------4h6--------------------4h6-4----------------|
 D|-------------------------------------------------------|
 A|--4--4--4----------------------------------------------|
 E|-------------------------------------------------------|

 


 


 


 Rhythm Fig. 4b


 

 
 G|-------------------------------------------------------|
 D|-------------------------------------------------------|
 A|--16--16------------14----16--16--16------------14\----|
 E|----------14--16----------------------14--16-----------|
 G|-------------------------------------------------------|
 D|-------------------------------------------------------|
 A|--0--0----------------4--4--4----------2----4----------|
 E|--------4----2--2--0-----------2----4------------------|
 G|-------------------------------------------------------|
 D|--------------------------------------7--7--7----------|
 A|-----------------------------------------------0-------|
 E|--2--2--2--2--2--2--2--2/-5--5--5--5-------------------|

 


 


 [End] [1]  


 

 
 G|-----------4h6---------------------4h6-4---------------|
 D|-------------------------------------------------------|
 A|--4--4--4----------------------------------------------|
 E|-------------------------------------------------------|

 


 


 [End] [2]  


 

 
 G|-------------------------------9------11p-9------------|
 D|----------/11~-------------11-----11---------11\-------|
 A|--4--4--4----------------------------------------------|
 E|-------------------------------------------------------|

 


 


 


 Rhythm Fig. 5


 

 
 G|-------------------------------------------------------|
 D|-------------------------------------------------------|
 A|--0--0-----------------2----2--0--0--------------------|
 E|--------4--4--2--0--2----------------4--2--4-----------|

 


 


 


 [End] [1]  


 

 
 G|-------------------------------------------------------|
 D|-------------------------------------------------------|
 A|--4--4--2h4-4--2h4-4--4--4--2h4-4--4--2----4--2--------|
 E|-------------------------------------------------------|

 


 


 


 [End] [2]  


 

 
 G|-------------------------------------------------------|
 D|-------------------------------------------------------|
 A|--4--4--------------2--4----4--4--2----4--2------------|
 E|--------2--2--4--4-------------------------------------|

 


 


 


 [End] [3]  


 

 
 G|-------------------------------------------------------|
 D|-------------------------------------------------------|
 A|--4--4--------------2--4----4--------------2--4--------|
 E|--------2--2--4--4-------------2--2--4--4--------------|

 


 


 


 [End] [4]  


 

 
 G|-------------------------------------------------------|
 D|-----------------------------2h4-4----2h4-4--4---------|
 A|------------------------------------------------2------|
 E|--2--2--2--2--2--2--2--2--2----------------------------|

 


 


 


 Rhythm Fig. 6


 

 
 G|-------------------------------------------------------|
 D|-------------------------------------------------------|
 A|--4--4--2----4--2-----4----4--2--x-x-2h4-2-----2-------|
 E|-------------------4------------------------4----------|
 G|-------------------------------------------------------|
 D|-------------------------------------------------------|
 A|----2--2--2--2--2--2-----2----4--4-----------2---------|
 E|----------------------4-------------0--2--4------------|
 G|-------------------------------------------------------|
 D|-------------------------------------------------------|
 A|--4--4--2--x-x-2h4-2-----2h4---4--2---x-4--2-----2-----|
 E|----------------------4-----------------------4--------|
 G|-------------------------------------------------------|
 D|-------------------------------------------------------|
 A|----2--0-------------2----4--4----2h4-2----------------|
 E|------------4--2--4----------------------4-------------|

 


 


 


 Rhythm Fig. 7


 

 
 G|-------------------------------------------------------|
 D|-------------------------------------------------------|
 A|--------------0--0--2--4----4--4--4--2h4-2-------------|
 E|--2--2--4--4--------------------------------4--2-------|
 G|-------------------------------------------------------|
 D|----------------------------------------2--------------|
 A|--------------0--0--2--4----4--4--4--4-----4--0--------|
 E|--2--2--4--4-------------------------------------------|
 G|-------------------------------------------------------|
 D|-------------------------------------------------------|
 A|----0--0--0--0--4--5--7----7--7--7--7--7--7\-----------|
 E|-------------------------------------------------------|

 


 


 


 Rhythm Fig. 8


 

 
 G|-------------------------------------------------------|
 D|-------------------------------------------------------|
 A|--0--0-----------------2----2--0--0-----------4--------|
 E|--------4--4--2--0--2----------------4--2--4-----------|
 G|-------------------------------------------------------|
 D|-------2-----------------------------------------------|
 A|----4-------4--2-------0--0-----------------2----------|
 E|------------------4----------4--4--2--0--2-------------|
 G|-------------------------------------------------------|
 D|-------------------------------9------11p-9------------|
 A|----2--0--0-----------4---/11-----11---------11\-------|
 E|-------------4--2--4-----------------------------------|
 G|-------------------------------------------------------|
 D|-------------------------------------------------------|
 A|--0--0-----------------2----2--0--0-----------4--------|
 E|--------4--4--2--0--2----------------4--2--4-----------|
 G|-------------------------------------------------------|
 D|----------------------14----------14-----/18--18--18\--|
 A|----4--4/-16--16--16------16--16------16---------------|
 E|-------------------------------------------------------|

 


 


 


 Rhythm Fig. 9


 

 
 G|-------------------------------------------------------|
 D|-------------------------------------------------------|
 A|--0--0-----------------2----2--0--0-----------4--------|
 E|--------4--4--2--0--2----------------4--2--4-----------|
 G|-------------------------------------------------------|
 D|-------------------------------------------------------|
 A|----4--------------2-----------------------------------|
 E|-------0--0--2--4--------------------------------------|


Important: The song above is NOT stored on the Chordie server. The original song is hosted at www.guitartabs.cc. Chordie works as a search engine and provides on-the-fly formatting. Chordie does not index songs against artists'/composers' will. To remove this song please click here.

This song is displayed as text-only. Transposing and tuning is only available for chordpro-songs.
Rate #1 of 2 versions

Login - add to songbook

SHARE PAGE  




You need to log in to post comments