Guitar Tabs, Chords and Lyrics
Server problems seems to be fixed. Chordie has been experiencing problems with songs disappearing. These issues now seems to be fixed, but still verifying the fix. If you find anything strange, please email admin@chordie.com.


Uh! All Night   KISS

 
 Eb|----------------------------------------------------|
 Bb|----------------------------------------------------|
 Gb|----------------------------------------------------|
 Db|----------------------------------------------------|
 Ab|----------------------------------------------------|
 Eb|-x--x--x--x-5-5-5-5-x--x--x--x--x--x-5-5-5-5--------|

 


 |Guitar 2 (left) |


 

 
 Eb|----------------------------------------------------|
 Bb|----------------------------------------------------|
 Gb|----------------------------------------------------|
 Db|-x--x--x--x-7-7-7-7-7--7--x--x--x--x-7-7-7-7--------|
 Ab|----------------------------------------------------|
 Eb|----------------------------------------------------|

 


 


 Rhythm Fig. 2


 Guitar 1 (right)


 

 
 Eb|----------------------------------------------------|
 Bb|----------------------------------------------------|
 Gb|-7-5---------7-5---------7-5----121212-14\----------|
 Db|-7-5-7-------7-5-7-------7-5-7--121212-14\----------|
 Ab|-5-3-7-------5-3-7-------5-3-7--101010-12\----------|
 Eb|-----5-----------5-----------5----------------------|

 


 |Guitar 2 (left) |


 

 
 Eb|----------------------------------------------------|
 Bb|--------------------------------12----/14\----------|
 Gb|-------5/7-5/7-----5/7-5/7--------12--/14\----------|
 Db|-------5/7-5/7-----5/7-5/7----------12/14\----------|
 Ab|-------3/5-3/5-----3/5-3/5-------------12\----------|
 Eb|----------------------------------------------------|

 


 


 Rhythm Fig. 3


 


 

 
 Eb|------------------------------------------------------------------------|
 Bb|------------------------------------------------------------------------|
 Gb|-9--10--9-9-10--9-9-10-9--7--9-9-10-9-10-9--7-7-9-9-7-------------------|
 Db|-9--10--9-9-10--9-9-10-9--7--9-9-10-9-10-9--7-7-9-9-7-------------------|
 Ab|-7--7---7-7-7---7-7-7--7--5--7-7-7--7-7--7--5-5-5-5-5-------------------|
 Eb|------------------------------------------------------------------------|

 


 


 


 Rhythm Fig. 4


 


 

 
 Eb|------------------------------------------------------------------------|
 Bb|------------------------------------------------------------------------|
 Gb|-9--10--9-9-10--9-9-10-9--7--9-9-10-9-10-9--5-----10-10-----------------|
 Db|-9--10--9-9-10--9-9-10-9--7--9-9-10-9-10-9--5-----10-10-----------------|
 Ab|-7--7---7-7-7---7-7-7--7--5--7-7-7--7-7--7--3-----8--8------------------|
 Eb|------------------------------------------------------------------------|

 


 


 Rhythm Fig. 5


 


 

 
 Eb|----------------------------------------------------|
 Bb|----------------------------------------------------|
 Gb|-121212-14-14-14-14-12--777-9-9-9-9-7---------------|
 Db|-121212-14-14-14-14-12--777-9-9-9-9-7---------------|
 Ab|-101010-10-10-10-10-10--555-5-5-5-5-5---------------|
 Eb|----------------------------------------------------|

 


 


 Rhythm Fig. 6


 


 

 
 Eb|----------------------------------------------------|
 Bb|----------------------------------------------------|
 Gb|-999-11-11-11-11-9--2-4-4-4-4-2---------------------|
 Db|-999-11-11-11-11-9--2-4-4-4-4-2---------------------|
 Ab|-777-7--7--7--7--7--0-0-0-0-0-0---------------------|
 Eb|----------------------------------------------------|

 


 


 Rhythm Fig. 7


 


 

 
 Eb|----------------------------------------------------|
 Bb|----------------------------------------------------|
 Gb|-555-7-7-7-7-5--7--7-7-7-7-9-9----------------------|
 Db|-555-7-7-7-7-5--7--7-7-7-7-9-9----------------------|
 Ab|-333-3-3-3-3-3--5--5-5-5-5-7-7----------------------|
 Eb|----------------------------------------------------|

 


 


 Rhythm Fig. 8


 Guitar 1 (right)


 

 
 Eb|----------------------------------------------------|
 Bb|----------------------------------------------------|
 Gb|-7-5---------7-5---------7-5----121212-14\----------|
 Db|-7-5-7-------7-5-7-------7-5-7--121212-14\----------|
 Ab|-5-3-7-------5-3-7-------5-3-7--101010-12\----------|
 Eb|-----5-----------5-----------5----------------------|

 


 |Guitar 2 (left) |


 

 
 Eb|----------------------------------------------------|
 Bb|----------------------------------------------------|
 Gb|-------5/7-5/7-----5/7-5/7--------------------------|
 Db|-------5/7-5/7-----5/7-5/7--------------------------|
 Ab|-------3/5-3/5-----3/5-3/5--------------------------|
 Eb|----------------------------------------------------|

 


 


 Rhythm Fig. 9


 


 

 
 Eb|----------------------------------------------------|
 Bb|----------------------------------------------------|
 Gb|----------------------------------------------------|
 Db|-x--x--x--x-7-7-7-7-7-7-x--x--x--x-x-x-x-x----------|
 Ab|-x--x--x--x-7-7-7-7-7-7-x--x--x--x-x-x-x-x----------|
 Eb|-x--x--x--x-5-5-5-5-5-5-x--x--x--x-x-x-x-x----------|

 


 


 Rhythm Fig. 10


 


 

 
 Eb|------------------------------------------------------------------------|
 Bb|------------------------------------------------------------------------|
 Gb|-12--12--12--12-12-12-12-12--12-12--12--12--12--12--12--7--7------------|
 Db|-12--12--12--12-12-12-12-12--12-12--12--12--12--12--12--7--7------------|
 Ab|-10--10--10--10-10-10-10-10--10-10--10--10--10--10--10--5--5------------|
 Eb|------------------------------------------------------------------------|

 


 < played with Pre Solo >


 


 Rhythm Fig. 11


 


 

 
 Eb|----------------------------------------------------|
 Bb|----------------------------------------------------|
 Gb|----------------------------------------------------|
 Db|-7--7--7--7-7-7-7-7--7-7-x--------------------------|
 Ab|-7--7--7--7-7-7-7-7--7-7-x--------------------------|
 Eb|-5--5--5--5-5-5-5-5--5-5-x--------------------------|

 


 x x x x x x x x x x


 Pre Solo.


 


 

 
 Eb|-17p^15p^12-----------------------------------------|
 Bb|----------------------------------------------------|
 Gb|----------------------------------------------------|
 Db|----------------------------------------------------|
 Ab|----------------------------------------------------|
 Eb|----------------------------------------------------|

 


 


 Solo.


 


 

 
 Eb|-17p^15p^12----------12----------------------------------12-------------|
 Bb|------------12-13-15----15-13-15-----17p^15p^13-------------------------|
 Gb|------------------------------------------------14-12-14----14-12-14----|
 Db|------------------------------------------------------------------------|
 Ab|------------------------------------------------------------------------|
 Eb|------------------------------------------------------------------------|
 Eb|------------------------------------------------------------------------|
 Bb|-15b--13----------------------------------------------------------------|
 Gb|---------14----------12--------12---------------------------------------|
 Db|--------------12h^14----12h^14------------------------------------------|
 Ab|-----------------------------------15-12-15--12-10-12-------------------|
 Eb|------------------------------------------------------------------------|
 Eb|------------------------------------------------------------------------|
 Bb|------------------------------------------------------------------------|
 Gb|-10/10b-10b-10b-10b-10/10b-----------------------15*--------------------|
 Db|-----------------------------10------------10---------------------------|
 Ab|--------------------------------12--12-10-----12------------------------|
 Eb|------------------------------------------------------------------------|
 Eb|--------------------------------17-------------17~----------------------|
 Bb|--------------------------15/17----17-20-17-20--------------------------|
 Gb|-------14----17p^14-----------------------------------------------------|
 Db|-12/14----14--------17~-------------------------------------------------|
 Ab|------------------------------------------------------------------------|
 Eb|------------------------------------------------------------------------|


Important: The song above is NOT stored on the Chordie server. The original song is hosted at www.guitartabs.cc. Chordie works as a search engine and provides on-the-fly formatting. Chordie does not index songs against artists'/composers' will. To remove this song please click here.

This song is displayed as text-only. Transposing and tuning is only available for chordpro-songs.
Rate #1 of 2 versions

Jango Player

Login - add to songbook

SHARE PAGE  




You need to log in to post comments