Guitar Tabs, Chords and Lyrics
Server problems seems to be fixed. Chordie has been experiencing problems with songs disappearing. These issues now seems to be fixed, but still verifying the fix. If you find anything strange, please email admin@chordie.com.


Wag Na Wag Mong Sasabihin   Kitchie Nadal

 
 --------------------------------------------------|
 -10---12--9---------------------------------------|
 --------------9(v)-----4(s)6(s)4------4(v)--------|
 --------------------7--------------7----------7(v)|
 --------------------------------------------------|
 --------------------------------------------------|

 


 


 medjo complicated 'to pero kya nyo.. hehe


 


 

 
 --------------------------------------------------|
 -10---12--9---------------------------------------|
 --------------9(v)---2(s)7(s)6-7(v)(s)14(v)-------|
 --------------------------------------------------|
 --------------------------------------------------|
 --------------------------------------------------|

 


 


 guitar 2


 


 

 
 -0-0-0-0-0-0-0-0--0-0-0-0-0-0-0-0--0-0-0-0-0-0-0-0-|
 -0-0-0-0-0-0-0-0--5-5-5-5-5-5-5-5--0-0-0-0-0-0-0-0-|
 -2-2-2-2-2-2-2-2--6-6-6-6-6-6-6-6--7-7-7-7-7-7-7-7-|
 -2-2-2-2-2-2-2-2--6-6-6-6-6-6-6-6--7-7-7-7-7-7-7-7-|
 -0-0-0-0-0-0-0-0--4-4-4-4-4-4-4-4--5-5-5-5-5-5-5-5-|
 ---------------------------------------------------|
 --0-0-0-0-0-0-0-0---------------------------------|
 --6-6-6-6-6-6-6-6---------------------------------|
 --7-7-7-7-7-7-7-7---------------------------------|
 --7-7-7-7-7-7-7-7---------------------------------|
 --5-5-5-5-5-5-5-5---------------------------------|
 --------------------------------------------------|

 


 you play this part all the way to the refrain...


 


 "ibang nararapat sa akin..."(2x)


 


 

 
 -0-0-0-0-0-0-0-0--0-0-0-0-0-0-0-0--] [--0-0-0-0-0-0-0-0------|
 -5-5-5-5-5-5-5-5--0-0-0-0-0-0-0-0--] [--6-6-6-6-6-6-6-6------|
 -6-6-6-6-6-6-6-6--7-7-7-7-7-7-7-7--] [--7-7-7-7-7-7-7-7------|
 -6-6-6-6-6-6-6-6--7-7-7-7-7-7-7-7--] [--7-7-7-7-7-7-7-7------|
 -4-4-4-4-4-4-4-4--5-5-5-5-5-5-5-5--] [--5-5-5-5-5-5-7-7------|

 


 


 play this part until the chorus...


 


 guitar 2 (2x)


 

 
 ---4-5---------5----][---5-5-5-5-5-5-5-5-----------|
 -5-----5---------5--][---6-6-6-6-6-6-6-6-----------|
 -2------2----7------][---7-7-7-7-7-7-7-7-----------|
 -------------7------][-----------------------------|
 --------------------][-----------------------------|
 --------------------][-----------------------------|

 


 


 [ Tab from: bttp://www.guitartabs.cc/tabs/k/kitcbie_nadal/wag_na_wag_mong_sasabibin_tab_ver_7.btml ] 


 CHROUS


 "oohh, 'wag na 'wag mong sasabihin"


 

 
 ---------------------------------------------------|
 -0-0-0-0-0-0-0-0--5-5-4-4-5-5-4-4------------------|
 -2-2-1-1-2-2-1-1--6-6-6-6-6-6-6-6--7-7-6-6-7-7-6-6-|
 -2-2-2-2-2-2-2-2--6-6-6-6-6-6-6-6--7-7-7-7-7-7-7-7-|
 -0-0-0-0-0-0-0-0--4-4-4-4-4-4-4-4--5-5-5-5-5-5-5-5-|
 ---------------------------------------------------|
 --------------------------------------------------|
 --------------------------------------------------|
 --------------------------------------------------|
 --------------------------------------------------|
 -5-5---8--7--5(v)---------------------------------|
 --------------------------------------------------|

 


 


 VERSE


 


 

 
 -0-0-0-0-0-0-0-0--0-0-0-0-0-0-0-0--0-0-0-0-0-0-0-0-|
 -0-0-0-0-0-0-0-0--5-5-5-5-5-5-5-5--0-0-0-0-0-0-0-0-|
 -2-2-2-2-2-2-2-2--6-6-6-6-6-6-6-6--7-7-7-7-7-7-7-7-|
 -2-2-2-2-2-2-2-2--6-6-6-6-6-6-6-6--7-7-7-7-7-7-7-7-|
 -0-0-0-0-0-0-0-0--4-4-4-4-4-4-4-4--5-5-5-5-5-5-5-5-|
 ---------------------------------------------------|
 --0-0-0-0-0-0-0-0---------------------------------|
 --6-6-6-6-6-6-6-6---------------------------------|
 --7-7-7-7-7-7-7-7---------------------------------|
 --7-7-7-7-7-7-7-7---------------------------------|
 --5-5-5-5-5-5-5-5---------------------------------|
 --------------------------------------------------|

 


 CHORUS


 


 "at sa gabi..." (2x)


 note: this part is a distorted thing, so.. para mas bumigat ung rythym section, i


 try to used a palm muted progressive metal chords, petrucci's way. hehe (try nyo!)


 


 

 
 -4-4-4-4-4-4-4-4--5-5-5-5-5-5-5-5-] [-5-5-5-5-5-5-5-5-|
 -5-5-5-5-5-5-5-5--5-5-5-5-5-5-5-5-] [-6-6-6-6-6-6-6-6-|
 -6-6-6-6-6-6-6-6--7-7-7-7-7-7-7-7-] [-7-7-7-7-7-7-7-7-|
 -6-6-6-6-6-6-6-6--7-7-7-7-7-7-7-7-] [-7-7-7-7-7-7-7-7-|
 -4-4-4-4-4-4-4-4--5-5-5-5-5-5-5-5-] [-5-5-5-5-5-5-5-5-|
 -4-4-4-4-4-4-4-4--5-5-5-5-5-5-5-5-] [-5-5-5-5-5-5-5-5-|


Important: The song above is NOT stored on the Chordie server. The original song is hosted at www.guitartabs.cc. Chordie works as a search engine and provides on-the-fly formatting. Chordie does not index songs against artists'/composers' will. To remove this song please click here.

This song is displayed as text-only. Transposing and tuning is only available for chordpro-songs.
Rate #1 of 5 versions

Login - add to songbook

SHARE PAGE  



You need to log in to post comments